Song name
# A B C D E F G H I J K L M N O P Q R S T U V W X Y Z

Sylosis - Reflections Through Fire tab

  intro      !    play this part 2x
e|-------------------------------------------------------------------------|
b|-------------------------------------------------------------------------|
G|-------------------------------------------------------------------------|
D|----------2x-------------------------------------------------------------|
A|-------10------------9-10-7-9-------------10-----10-9-----9-7-----7-6--0-|
E|-7-7-7-8-------7-7-7----------7-7-7-7-7-7----0-0------0-0-----0-0--------|
   . . .         . . .          . . . . . .    . .      . .     . .
e|-----------------------------------------------------------|    i only
b|-----------------------------------------------------------|tabbed guitar
G|-----------------------------------------------------------|   one at this
D|-----------------------------------------------------------|   part
A|-9-10-7-9-------------7-10-7-------------6-9-6-------------|
E|----------7-7-7-7-7-7--------0-0-0-0-0-0-------0-0-0-0-0-0-|
            . . . . . .        . . . . . .       . . . . . .
e|------------------------------------------------------|
b|------------------------------------------------------|
G|------------------------------------------------------|
D|---------------------------------------------5-7-5----|
A|-----6---6---6---7---7---7---------------7-6-------9-7|
E|-7-7---7---7---7---7---7---5-5-5-5-5-5-5--------------|

e|-----------------------------------------------------------------|
b|-----------------------------------------------------------------|
G|-----------------------------------------------------------------|
D|-----------------------------------------------5-9-5---5-7-5-----|
A|-----6---6---6---7---7---7-----------------7-6-------9-------9-7-|
E|-7-7---7---7---7---7---7----0-0-0-0-0-0-0------------------------|
   guitar 1    pre-
e|-----------------------------------------|
b|-----------------------------------------|
G|-8---------8---------9--------9----------|
D|---10-9-10---10-9-10---10-9-10--10-9-10--|
A|-----------------------------------------|
E|-----------------------------------------|

e|-----------------------------------------------|
b|-----------------------------------------------|
G|-11----------11----------12---------12---------|
D|----14-13-14----14-13-14---14-13-14---14-13-14-|
A|-----------------------------------------------|
E|-----------------------------------------------|

e|-------------------------------------------|
b|-------------------------------------------|
G|-8---------8----------9----------9---------|
D|---10-9-10---10-9-10----10-9-10----10-9-10-|
A|-------------------------------------------|
E|-------------------------------------------|

e|------------------------------------------|
b|------------------------------------------|
G|------------------------------------------|
D|--7---------7---------9---------9---------|
A|----10-9-10---10-9-10---10-9-10---10-9-10-|
E|------------------------------------------|
  guitar two  pre-
e|-----------------------------0---0-|
b|-----------------------------0---0-|
G|-----------------------------------|
D|--4---2-4-5--8-8---4--2-4----------|
A|--2---0-2-3--6-3---2--0-2--2---5---|
E|--2---0-2-3--6-3---2--0-2--0---3---|
        forced into fire
e|-------------------------------------------------------|
b|-------------------------------------------------------|
G|-------------------------------------------------------|
D|---------------------------------------------4-5-4-----|
A|--------6---6-------------------6--6-----7-6-------7-6-|
E|-7-7--7---7---7-7--7--7-7--7-7----7--7-----------------|

e|-------------------------------------------------------------|
b|-------------------------------------------------------------|
G|-------------------------------------------------------------|
D|-------------------------------------------4-5-4-----9-------|
A|--------6---6------------------6---6---7-6-------7-6---7-6-7-|
E|-7-7--7---7---7-7--7--7-7--7-7---7---7-----------------------|
   guitar 1   chorus
e|-------------------------------------------------------------------|
b|-------------------------------------------------------------------|
G|-8---------8----------9---------9----------11----------11----------|
D|---10-9-10---10-9-10----10-9-10---10-9-10-----14-13-14----14-13-14-|
A|-------------------------------------------------------------------|
E|-------------------------------------------------------------------|

e|------------------------------------------------|
b|------------------------------------------------|
G|--12----------12-----------8---------8----------|
D|-----14-13-14----14-13-14----10-9-10---10-9-10--|
A|------------------------------------------------|
E|------------------------------------------------|

e|-----------------------------------------|
b|-----------------------------------------|
G|-----------------------------------------|
D|-7---------7---------9---------9---------|
A|---10-9-10---10-9-10---10-9-10---10-9-10-|
E|-----------------------------------------|
    guitar2  let ring
e|-----------------------------------------|
b|-----------------------------------------|
G|-----------------------------------------|
D|-4---------------------------------------|
A|-2---------------------------------------|
E|-2---------------------------------------|
    guitar 1
e|----------------------------------------------------------------------|
b|----------------------------------------------------------------------|
G|----------------------------------------------------------------------|
D|----------------------------------------------------------------------|
A|----------------------------------------------------------------------|
E|-7-7-7-7--7-7-7-7--7-7-7-7--7-7-7-7--5-5-5-5--5-5-5-5--0-0-0-0--0-0-0-|

e|----------------------------------------------------------------------------|
b|----------------------------------------------------------------------------|
G|----------------------------------------------------------------------------|
D|----------------------------------------------------------------------------|
A|----------------------------------------------------------------------------|
E|-7-7-7-7--7-7-7-7--7-7-7-7--7-7-7-7--8-8-8-8--8-8-8-8-11-11-11-11--11-11-11-|
    guitar 2
e|---------------------------------------------------------------------------|
b|---------------------------------------------------------------------------|
G|---------------------------------------------------------------------------|
D|---------------------------------------------------------------------------|
A|---------------------------------------------------------------------------|
E|-11-11-11-11--11-11-11-11--11-11-11-11--11-11-11-11--8-8-8-8--8-8-8-8-0-00-|

e|--------------------------------------------------------------------------|
b|--------------------------------------------------------------------------|
G|--------------------------------------------------------------------------|
D|--------------------------------------------------------------------------|
A|--------------------------------------------------------------------------|
E|-11-11-11-11--11-11-11-11--11-11-11-11--11-11-11-11--12-12-12-12--12-1212-|

e|--------------------------|
b|--------------------------|
G|--------------------------|
D|--------------------------|
A|--------------------------|
E|-14-14-14-14--14-14-14-14-|
   guitar 1
e|---------------------------------------------------------------------------|
b|-----4-5-4----------------4-5-4-----------7-8-7-----------------7-8-7-8-10-|
G|-4-5-------5-4-------5-4--------5-4---8-9-------9-8---------8-9------------|
D|---------------7-5-7--------------------------------10-9-10----------------|
A|---------------------------------------------------------------------------|
E|---------------------------------------------------------------------------|

e|--------------------------------------7-------5-------3----------------|
b|-----4-5-4-----------------4-5-4--------5-4-5---5-4-5---5-4-5--7-5-4-5-|
G|-4-5-------5-4--------4-5--------5-4-----------------------------------|
D|----------------7-5-7--------------------------------------------------|
A|-----------------------------------------------------------------------|
E|-----------------------------------------------------------------------|
    guitar 2
e|--------------------------------------|
b|-----7-8-7------------------7-8-7-----|
G|-8-9-------9-8---------8-9--------9-8-|
D|---------------10-9-10----------------|
A|--------------------------------------|
E|--------------------------------------|
Tap to rate this tab
# A B C D E F G H I J K L M N O P Q R S T U V W X Y Z