Guitaretab - guitar tabs
Song name
# A B C D E F G H I J K L M N O P Q R S T U V W X Y Z

Sylvian David - Orpheus tab

Ash-Orpheus

This is an amazing song but is quite hard to play. Check the song for exact timings and strum patterns

Intro: (Play fast!)

Guitar 1

E-------------------------------------|
B-------------------------------------|  (x4)
G-------------------------------------|
D-------------------------------------|
A-7-5-5-7-5-5-7-5-7-5-5-7-------------|
E-------------------------5-7-5-5-3-0-|

Guitar 2

E-------------------------------------|
B-------------------------------------|
G-9-7-7-9-7-7-9-7-9-7-7-9-------------|
D-------------------------7-9-7-7-5---|
A-----------------------------------7-|
E-------------------------------------|

Then both guitars:

E-------------------------------------|
B-------------------------------------|
G-9-7-7-9-7-7-9-7-9-7-7-9-------------|
D-9-7-7-9-7-7-9-7-9-7-7-9-7-9-7-7-5-2-|
A-7-5-5-7-5-5-7-5-7-5-5-7-7-9-7-7-5-2-|
E-------------------------5-7-5-5-3-0-|

Before verse 1

E-----------------------------------------------|
B----------------------------7-7/8-8------------|
G-7-7/9-9--------------------7-7/9-9-12-11-9-9/-|
D-7-7/9-9-----------(x3)-----7-7/9-9-12-11-9-x/-|
A-5-5/7-7-10-9-7-7-----------5-5/7-7-10-9--7-7/-|
E-----------------------------------------------|

Verse 1:

E-------------------------------------------------------|
B-------------------------------------------------------|
G-7-7-6-/9-9-9-9-7-7/-9-9-9---------------/9-9-9-9-7-7/-|
D-7-7-7-/9-9-9-9-7-7/-9-9-9-5-4---4-4-4-2-/9-9-9-9-7-7/-|
A-5-5-7---------------7-7-7-x-x---x-x-x-2---------------|
E-----5---------------------3-2-0-2-2-2-0---------------|

E--------------------------------------------------|
B--------------------------------------------------|
G-9-9-9---------------/9-9-9-9-7-7/-- (x2)then--/9-| (x7)
D-9-9-9-5-4---4-4-4-2-/9-9-9-9-7-7/-------------/9-|
A-7-7-7-x-x---x-x-x-2------------------------------|
E-------3-2-0-2-2-2-0------------------------------|


Chorus:

Guitar 1

  C#m      B        Asus2

E-0--     -0--      -0--|
B-5--     -4--      -0--|
G-6--(x5) -4--(x4)  -2--|(x14)
D-6--     -4--      -2--|
A-4--     -2--      -0--|
E----     ----      -0--|

  C#m      B        Fm

E-0--     -0--      -2--|
B-5--     -4--      -2--|
G-6--(x5) -4--(x4)  -2--|(x10)
D-6--     -4--      -4--|
A-4--     -2--      -4--|
E----     ----      -2--|

Guitar 2 (x2)
[ Tab from: http://www.guitaretab.com/s/sylvian-david/18895.html ]
E---12-----12-----12--11--11--11--12-12-----12-----12--------12---------|
B-12--12-12--12-12--12--12--12--12-----12-12--12-12--12-12-12--12-12-12-|
G-----------------------------------------------------------------------|
D-----------------------------------------------------------------------|
A-----------------------------------------------------------------------|
E-----------------------------------------------------------------------|


E-------------------------------------------------|
B-------------------------------------------------|
G-12-11-9-9---7-7/9-9-12-11-9-9-7-7/9-9-12-11-9-9-|
D-12-11-9-9---7-7/9-9-12-11-9-9-7-7/9-9-12-11-9-9-|
A-10-9--7-7---5-5/7-7-10-9--7-7-5-5/7-7-10-9--7-7-|
E-------------------------------------------------|

Verse 2:

E-----------------------------------|
B-----------------------------------|
G-9-9-9---------------/9-9-9-9-7-7/-| (x2)
D-9-9-9-5-4---4-4-4-2-/9-9-9-9-7-7/-|
A-7-7-7-x-x---x-x-x-2---------------|
E-------3-2-0-2-2-2-0---------------|

E----------------------------------------|
B----------------------------------------|
G-9-9-9-12-11-9-11-11-11-9-/9-9-9-9-7-7/-|  (x2)
D-9-9-9--x--x-x--x--x--x-x-/9-9-9-9-7-7/-|
A-7-7-7-10--9-7--9--9--9-7---------------|
E----------------------------------------|


Chorus x2

Then:

E-------------------------|
B-----------2-2-2---------|
G-12-11-9---2-2-2-12-11-9-|
D-12-11-9-7-2-2-2-12-11-9-|
A-10--9-7-7-------10--9-7-|
E---------5---------------|

Play Intro again then:

E-----   -0------0------0-|
B-----   -0------5------4-|
G-12/-   -2-(x8)-6-(x4)-4-|(x4) (x4)
D-12/-   -2------6------4-|
A-10/-   -0------4------2-|
E-----   -0------x------x-|

Chorus x2

Outro:

Guitar 1

E------------------|
B------------------|
G-7-7/9-9----------|  (x3)
D-7-7/9-9-5-4-2-2--|
A-5-5/7-7-5-4-2-2--|
E---------3-2-0-0--|

Guitar 2

E-/12-/12-12-12-12-12-12-12-12-12-12-12-|  (x2)
B---------------------------------------|
G---------------------------------------|
D---------------------------------------|
A---------------------------------------|
E---------------------------------------|

E------------------------------------|
B------------------------------------|
G-7-7/9-9-12-11-9-9-7-7-9-7-7-9-7-9/-|
D-7-7/9-9-12-11-9-9-7-7-9-7-7-9-7-9/-|
A-5-5/7-7-10--9-7-7-5-5-7-5-5-7-5-7/-|
E------------------------------------|
Related for Orpheus tab