Song name
# A B C D E F G H I J K L M N O P Q R S T U V W X Y Z

Symphony In Peril - Aborting The Fabricated tab

-------------------------------------------------------------------------------
			Aborting the Fabricated - Symphony in Peril
-------------------------------------------------------------------------------
Tabbed by: Andres "silvadolla" Ali
Email: andres.ali@gmail.com

I saw so few Symphony in Peril tabs, t'is a shame, they were an awesome band.
Anyway, I tabbed it out and I think it's pretty accurate so have at it! Please
email me if you have any comments/suggestions. Thanks!

Tuning: CGCFAD

d|---------------------------------------------------------------------------|
A|---------------------------------------------------------------------------|
F|---------------------------------------------------------------10-9--------|
C|-------------7-8------5------8-7------------------7-8---8-7----------------|
G|-----5---5-------------------------------5----5----------------------------|
C|-0-0---0---0------0-0-----0----------0-0---0----0-----0--------------------|x4

d|---------------------------------------------------------------------------|
A|---------------------------------------------------------------------------|
F|------------------------------14-15-15-------------------------------------|
C|--------------------------------------------------------------------7-8-8--|x2
G|---0---0-0-0-0-0-0--0-0-0-0-0-----------0---0-0-0-0-0-0--0-0-0-0-0---------|
C|---0---0-0-0-0-0-0--0-0-0-0-0-----------0---0-0-0-0-0-0--0-0-0-0-0---------|

d|---------------------------------------------------------------------------|
A|---------------------------------------------------------------------------|
F|--15-15-14------------------------------15-15-14---------------------------|
C|---------------------------------------------------------------------------|
G|--------------13-13-13-13-13-13-13-13------------13-13-13-13-13-13-13-13---|x4
C|--------------13-13-13-13-13-13-13-13------------13-13-13-13-13-13-13-13---|

d|---------------------------------------------------------------------------|
A|---------------------------------------------------------------------------|
F|---------------------------------------------------------------10-9--------|
C|-------------7-8------5------8-7------------------7-8---8-7----------------|
G|-----5---5-------------------------------5----5----------------------------|
C|-0-0---0---0------0-0-----0----------0-0---0----0--------------------------|x4

d|---------------------------------------------------------------------------|
A|---------------------------------------------------------------------------|
F|------------------------------14-15-15-------------------------------------|
C|--------------------------------------------------------------------7-8-8--|x2
G|---0---0-0-0-0-0-0--0-0-0-0-0-----------0---0-0-0-0-0-0--0-0-0-0-0---------|
C|---0---0-0-0-0-0-0--0-0-0-0-0-----------0---0-0-0-0-0-0--0-0-0-0-0---------|

d|---------------------------------------------------------------------------|
A|---------------------------------------------------------------------------|
F|--15-15-14------------------------------15-15-14---------------------------|
C|---------------------------------------------------------------------------|
G|--------------13-13-13-13-13-13-13-13------------13-13-13-13-13-13-13-13---|x4
C|--------------13-13-13-13-13-13-13-13------------13-13-13-13-13-13-13-13---|

d|---------------------------------------------------------------------------|
A|---------------------------------------------------------------------------|
F|---------------------------------------------------------------------------|x4
C|--------------------------------------------------------------8-7-6--------|
G|--0-0-0-0-0-0-0-0--0-0-0-0-0-0-0-0---3-3-3-3-3-3-3-3--8-7-6----------------|
C|--0-0-0-0-0-0-0-0--0-0-0-0-0-0-0-0---3-3-3-3-3-3-3-3-----------------------|

d|---------------------------------------------------------------------------|
A|---------------------------------------------------------------------------|
F|--------5---7--------------------------------------------------------------|
C|--------5---7-----------3-3------------------------------------------------|
G|--------3-/-5-----------3-3------------------------------------------------|
C|--0-0-0----------0-0-0--3-3------------------------------------------------|

d|---------------------------------------------------------------------------|
A|---------------------------------------------------------------------------|
F|--------5---7--------------------------------------------------------------|
C|--------5---7-----------3-3--------3-3-----5-5-----5-5---------------------|
G|--------3-/-5-----------3-3--------3-3-----5-5-----5-5---------------------|
C|--0-0-0----------0-0-0--3-3---0-0--3-3---0-5-5--0--5-5---------------------|

d|---------------------------------------------------------------------------|
A|---------------------------------------------------------------------------|
F|-------5----7-----------------------------5---7----------------------------|
C|-------5----7-----8-8---10-10-------------5---7-----8-8---10-10------------|
G|-------3--/-5-----8-8---10-10-------------3-/-5-----8-8---10-10------------|
C|-0-0-0------------8-8---10-10-------0-0-0-----------8-8---10-10------------|


d|---------------------------------------------------------------------------|
A|---------------------------------------------------------------------------|
F|-------5----7--------------------------------------------------------------|
C|-------5----7-----8-8---10-10----------------------------------------------|
G|-------3--/-5-----8-8---10-10-----3-3-3-5-5-5------------------------------|
C|-0-0-0------------8-8---10-10-----3-3-3-5-5-5------------------------------|

d|---------------------------------------------------------------------------|
A|---------------------------------------------------------------------------|
F|-------5----7-----------------------------5---7----------------------------|
C|-------5----7-----8-8---10-10-------------5---7-----8-8---10-10------------|
G|-------3--/-5-----8-8---10-10-------------3-/-5-----8-8---10-10------------|
C|-0-0-0------------8-8---10-10-------0-0-0-----------8-8---10-10------------|


d|---------------------------------------------------------------------------|
A|---------------------------------------------------------------------------|
F|-------5----7--------------------------------------------------------------|
C|-------5----7-----8-8---10-10----------------------------------------------|
G|-------3--/-5-----8-8---10-10-----3-3-3-5-5-5-2-2-2-2----------------------|
C|-0-0-0------------8-8---10-10-----3-3-3-5-5-5-2-2-2-2----------------------|

d|---------------------------------------------------------------------------|
A|---------------------------------------------------------------------------|
F|---------------------------------------------------------------------------|
C|---------------------------------------------------------------------------|
G|-0---0---0---0-0---0--0------0---0---0---0-0---0--0------------------------|x4
C|-0---0---0---0-0---0--0------0---0---0---0-0---0--0------------------------|


That's all, hope you enjoyed it =D 

| /  slide up
| \  slide down
| h  hammer-on
| p  pull-off
| ~  vibrato
| +  harmonic
| x  Mute note
===============================================================================
Tap to rate this tab
# A B C D E F G H I J K L M N O P Q R S T U V W X Y Z