Guitaretab - guitar tabs
Song name
# A B C D E F G H I J K L M N O P Q R S T U V W X Y Z

Symphony In Peril - Stiletto tab

Intro
|---------------------|
|---------------------|
|---------------------|
|---------------------|
|-5p4p0-8p0-7p0-4p0-0-|
|---------------------|4x

|-----|
|-----|
|-----|
|-6-5-|
|-6-5-|
|-6-5-|

|---------------------|
|---------------------|
|---------------------|
|---------------------|
|-5p4p0-8p0-7p0-4p0-0-|
|---------------------|4x

|------------|
|------------|
|------------|
|-0~---------|
|-0~-0000000-|
|-0~-0000000-|
PM   .......

Verse
|--------------------|
|--------------------|
|--------------------|
|--------------------|
|-5t-8t-7t-10t-3t-7t-|
|--------------------|2x

Guitar 1
|----------------------|
|----------------------|
|----------------------|
|-7t-10t-9t-12t-5t-9t--|
|----------------------|
|----------------------|
|Guitar 2
|--------------------|
|--------------------|
|--------------------|
|--------------------|
|-5t-8t-7t-10t-3t-7t-|
|--------------------|

Guitar 1
|----------------------------------------------|
|----------------------------------------------|
|-----------------5----------------------------|
|-7t-10t-9t-12t-5-5-5-3-2-0~~------------------|
|-----------------3-5-3-2-0~~--------x////////-|
|-------------------5-3-2-0~~--------x////////-|
|Guitar 2
|----------------------------------------------|
|----------------------------------------------|
|------------------5---------------------------|
|------------------5-5-3-2-0-------------------|
|-5t-8t-7t-10t-3---3-5-3-2-0--x///////////////-|
|--------------------5-3-2-0--x///////////////-|

Breakdown 1
|------------------------|
|------------------------|
|------------------------|
|------------------------|
|-0-00--0-00--0-00--0-00-|
|-0-00--0-00--0-00--0-00-|4x
PM. ..  . ..  . ..  . ..
[ Tab from: http://www.guitaretab.com/s/symphony-in-peril/183949.html ]
Verse Part 1
|-----------------------------------------------------------|
|-----------------------------------------------------------|
|------7------5-----10---------------7------5-----10------9-|
|-----------------------------------------------------------|
|-0-00-5-0-00-3-0-00-8-0-00-<7>-0-00-5-0-00-3-0-00-8-0-00-7-|
|-0-00---0-00---0-00---0-00-----0-00---0-00---0-00---0-00---|
PM. ..   . ..   . ..   . ..     . ..   . ..   . ..   . ..

|-----------------------------------------------------------------|
|-----------------------------------------------------------------|
|------7------5-----10---------------7------5-----10--------------|
|----------------------------------------------------------0~--0~-|
|-0-00-5-0-00-3-0-00-8-0-00-<7>-0-00-5-0-00-3-0-00-8-0-00--0~-00~-|
|-0-00---0-00---0-00---0-00-----0-00---0-00---0-00---0-00--0~-00~-|
PM. ..   . ..   . ..   . ..     . ..   . ..   . ..   . ..     .

Verse Part 2 2x
|----------------------------------------------------|
|----------------------------------------------------|
|----------------------------------------------------|
|----------------------------------------------------|
|-0-0000-0-0-0--5-----------0-0000-0-0-0-------------|
|-0-0000-0-0-0----5-6-5-3-0-0-0000-0-0-0-0-5-0-3-2-0-|
PM. .... . . .              . .... . . .

|----------------------------------|
|----------------------------------|
|----------------------------------|
|----------------------------------|
|-0-0000-0-0-0--5------------------|
|-0-0000-0-0-0----5-6-5-3-0--3t-2t-|
PM. .... . . .

Verse Part 3
|----------------|
|----------------|
|----------------|
|----------------|
|-/5-------------|
|----5h6-3h5-2h3-|3x

|-----------------|
|-----------------|
|-----------------|
|-----------------|
|-/5-----------7~-|
|----5h6-3h5/7----|

Bridge - Guitar 1
|-6-6---------------|
|-9-9---------------|
|-------------------|
|-------------------|
|-----0-00----------|
|-----0-00----------|
|PM   . ..
|Guitar 2
|-6-6---------------|
|-9-9---------------|
|-------------------|
|-------------------|
|----------0-00-----|
|----------0-00-----|
PM         . ..

Breakdown 2 8x
|---------------------|
|---------------------|
|---------------------|
|---------------------|
|-0-00-0-00-0000-0-00-|
|-0-00-0-00-0000-0-00-|
PM. .. . .. .... . ..

Key
p - Pull off
h - Hammer on
t - Tremelo pick
/ - Slide
x/ - Pick slide
PM - Palm mute
Related for Stiletto tab