Song name
# A B C D E F G H I J K L M N O P Q R S T U V W X Y Z

Symphony In Peril - Stiletto tab

Tabbed by: David, gibsonlp68 (bigdavid351- on youtube)
Email:bigdavid351@yahoo.com

Tuning: Drop C.

I slowed this whole song down so I'm pretty sure its 100% correct. 


|--------------------------------|     
|--------------------------------|     
|--------------------------------|     
|--------------------------------| x3  
|---6p5p0-8p5p0-5p1p0------------|     
|---------------------8p0-8p7p0~-|     

fourth time

|--------------------------------|     
|--------------------------------|    
|--------------------------------|    
|---------------------------6--5-|    
|---6p5p0-8p5p0-5p1p0-------6--5-|
|---------------------8p0---6--5-|


|--------------------------------|     
|--------------------------------|     
|--------------------------------|     
|--------------------------------| x3  
|---6p5p0-8p5p0-5p1p0------------|     
|---------------------8p0-8p7p0~-|     

fourth time

|------------------------------------------|     
|------------------------------------------|    
|------------------------------------------|    
|----------------------------0~~~-0000000--|    
|---6p5p0-8p5p0-5p1p0--------0~~~-0000000--|
|---------------------8p0~~--0~~~-0000000--|
                                  .......

first time x2

|----------------------------------------------------------|
|----------------------------------------------------------|
|----------------------------------------------------------|
|----------------------------------------------------------| both guitars x2
|-555555555555555555888777101010101010101010888333333777777|
|----------------------------------------------------------|


second time


|----------------------------------------------------------|
|----------------------------------------------------------|
|----------------------------------------------------------|
|----------------------------------------------------------| guitar 1
|-555555555555555555888777101010101010101010888333333777777|
|----------------------------------------------------------|

|----------------------------------------------------------------|
|----------------------------------------------------------------|
|----------------------------------------------------------------|
|-777777777777777777101010999121212121212121212101010555555888888| guitar 2
|----------------------------------------------------------------|
|----------------------------------------------------------------|

third time

|--------------------------------------------------------------|
|--------------------------------------------------------------|
|-------------------------------------------5~~----------------|
|-------------------------------------------5~~----2-0~~~------| guitar 1
|-5555555555555555558887771010101010101010103~~-1p02-0~~~------|
|--------------------------------------------------2-0~~~pppiiiiicccckkkk scccrrraaaapppeee!!!---|

|----------------------------------------------------------------|
|----------------------------------------------------------------|
|----------------------------------------------------------------|
|-77777777777777777710101099912121212121212121210~~~-872-0~~~----| guitar 2
|----------------------------------------------10~~~-872-0~~~----|
|----------------------------------------------10~~~-872-0~-pppiiiiicccckkkk scccrrraaaapppeee!!!-|



This assault!!!! will!!! bring me strength!!!!!

|--------------------------|
|--------------------------|
|--------------------------|
|00-00--00-00--00-00--00-00| x4
|00-00--00-00--00-00--00-00|
|00-00--00-00--00-00--00-00|
 .. ..  .. ..  .. ..  .. ..                     



|---------------------------------|
|---------------------------------|
|------7-------5-------10---------|
|00-00---00-00---00-00---00-00----| both guitars                  x4
|00-00-5-00-00-3-00-00-8-00-00-7*-| (on second time, no pinch)
|00-00---00-00---00-00---00-00----|
 .. ..   .. ..   .. ..   .. .. 




|---------------------------------------------------------------------|
|---------------------------------------------------------------------|
|---------------------------------------------------------------------|
|-0~~~~~-0-0000-0-0-0-0~-------------0~-0000-0-0-0-0~---------------0~| 
|-0~~~~~-0-0000-0-0-0-0~-5-----------0~-0000-0-0-0-0~---------------0~|
|-0~~~~~-0-0000-0-0-0-0~---8-5-7-3-2-0~-0000-0-0-0-0~-0-5/6-0-3-2-0-0~|
  .      . .... . . .                   .... . . . 


|-----------------------------------------------------|
|-----------------------------------------------------|                   Play whole thing twice
|-----------------------------------------------------|
|-0~~~~~-0-0000-0-0-0-0~-------------3333333322222222-|
|-0~~~~~-0-0000-0-0-0-0~-5-----------3333333322222222-|
|-0~~~~~-0-0000-0-0-0-0~---8-5-7-3-2-3333333322222222-|
         . .... . . .                   


Last riff before end breakdown

|------------------------------------------------------------------|
|------------------------------------------------------------------|
|----------------------------------------------------------9~~~----|
|------------------------------------------------------------------|
|-/5-----------1/5-----------1/5-----------1/5-----------1/7~~~----|
|----5-6-3-5-0-----5-6-3-5-0-----5-6-3-5-0-----5-6-3-5-0-----------|


|-------------|
|--6-6--------|
|--9-9--------|
|------0-00---|  guitar one
|------0-00---|
|------0-00---|


|--------------------|
|--------------------|
|--------------------|
|-------------0-00---|  guitar two
|-------------0-00---|
|-------------0-00---|


GO!!

|--------------------------|
|--------------------------|
|--------------------------|
|-00-00--00-00--0000--00-00| x8
|-00-00--00-00--0000--00-00|
|-00-00--00-00--0000--00-00|

The End. 

| /  slide up
| \  slide down
| h  hammer-on
| p  pull-off
| ~  vibrato
| +  harmonic
| x  Mute note
Tap to rate this tab
 
# A B C D E F G H I J K L M N O P Q R S T U V W X Y Z