Song name
# A B C D E F G H I J K L M N O P Q R S T U V W X Y Z

Symphony In Peril - Inherent Scars tab

-------------------------------------------------------------------------------
			     Inherent Scars - Symphony In Peril
-------------------------------------------------------------------------------
Hey, this is my first tab. It's a really easy song but i saw the lack of symphony
in peril tabs so i decided to do one. It sounds right to me if its not just email me.

Tabbed by: Adam
Email:Flipskate1111@Yahoo.com

Tuning: CGCFAD 

 (Clean) Intro
D|---------------------------------------------------------------------------|
A|---------------------------------------------------------------------------|
F|----8----8----8----8----9----9----9----9---8---8---8---8---8---8--8---8----|
C|-11---11---11---11---11---11---11---11---9---9---9---9---8---8--8---8------| X4
G|---------------------------------------------------------------------------|
C|---------------------------------------------------------------------------|

Lightly Muted
D|---------------------------------------------------------------------------|
A|---------------------------------------------------------------------------|
F|--8------------9------------8-------------8--------------------------------|
C|-11--(x8)-----11--(x8)------9---(x8)------8--(x8)--------------------------|X2
G|---------------------------------------------------------------------------|
C|---------------------------------------------------------------------------|

(Distortion)
D|---------------------------------------------------------------------------|
A|---------------------------------------------------------------------------|
F|----8----8----8----8----9----9----9----9---8---8---8---8---8---8--8---8----|
C|-11---11---11---11---11---11---11---11---9---9---9---9---8---8--8---8------| X3
G|---------------------------------------------------------------------------|
C|---------------------------------------------------------------------------|

Lightly Muted
D|---------------------------------------------------------------------------|
A|---------------------------------------------------------------------------|
F|--8------------9------------8-------------8--------------------------------|X2     
C|-11--(x8)-----11--(x8)------9---(x8)------8--(x8)--------------------------|
G|---------------------------------------------------------------------------|     
C|---------------------------------------------------------------------------|
											
Not Muted									     
D|---------------------------------------------------------------------------|
A|---------------------------------------------------------------------------|
F|--8------------9------------8-------------8--------------------------------|X2
C|-11--(x8)-----11--(x8)------9---(x8)------8--(x8)--------------------------|
G|---------------------------------------------------------------------------|
C|---------------------------------------------------------------------------|
  Play Muted
       Not Muted
       Muted
       Not Muted an aditional 2 after

(Distortion)
D|---------------------------------------------------------------------------|
A|---------------------------------------------------------------------------|
F|-------8------8----8-------9------9----9------8------8---8-----8-----8---8-|
C|-11-11---11-11--11---11-11---11-11---11---9-9----9-9---9---8-8---8-8---8---| X3
G|---------------------------------------------------------------------------|
C|---------------------------------------------------------------------------|

D|---------------------------------------------------------------------------|
A|---------------------------------------------------------------------------|
F|---------------------------------------------------------------------------|
C|-----11--------------------------------------------------------------------|
G|-----11-----(Let Ring)-----------------------------------------------------|
C|-----11--------------------------------------------------------------------|
Tap to rate this tab
# A B C D E F G H I J K L M N O P Q R S T U V W X Y Z