Guitaretab - guitar tabs
Song name
# A B C D E F G H I J K L M N O P Q R S T U V W X Y Z

Symphony X - Pharaoh tab

#----------------------------------PLEASE NOTE---------------------------------#
#This file is the author's own work and represents their interpretation of the #
#song. You may only use this file for private study, scholarship, or research. #
#------------------------------------------------------------------------------#

PHARAOH
As recorded by Symphony X
(From the 1997 Album THE DIVINE WINGS OF TRAGEDY)

Transcribed by Johannes Zetterberg L., except "Guitar Solo"(transcribed by Luca "dtrule" Abete)
	

Words by Russell Allen Music by Symphony X
Arranged by Symphony X

G#5
4 6 6 x x x
	
A5
5 7 7 x x x
	
E5
0 2 2 x x x
	
F5
1 3 3 x x x

Gtr I (D G C F A D) - 'M. Romeo - Dist. Gtr. #1'
Gtr II (D G C F A D) - 'M. Romeo - Dist. Gtr. #2'
Gtr III (D G C F A D) - 'M. Romeo - Acous. Gtr.'
Gtr IV (D G C F A D) - 'M. Pinnella - Background Keyboard #1'
Gtr V (D G C F A D) - 'M. Pinnella - Background Keyboard #1'
Gtr VI (D G C F A D) - 'M. Pinnella - Lead Keyboard'

   Intro
    Q=135
    $
    Dsus2                  Dsus2
   4/4
    Gtr I
     q   q    q      q      q    q   q    q
||-----------------------|-------------------|
||o----------------------|-------------------|
||--11--11---11-----11---|-11---11--11---11--|
||---9---9----9------9---|--9----9---9----9--|
||o--7---7----7------7---|--7----7---7----7--|
||-----------------------|-------------------|
|
|   Gtr IV
|    q   E E  E S S  E E    E E  Q   E E  Q
||-----------------------|-------------------|
||o----------------------|-------------------|
||---9-----9----9-9--9---|----9------9-9-----|
||-----------------------|-------------------|
||o--7-----7----7-7--7---|----7------7-7-----|
||-----------------------|-------------------|


  Dsus2                Dsus2              D#5
   q    q   q    q      q      q    q      Q
|--------------------|--------------------------||
|--------------------|-------------------------o||
|-11---11--11---11---|-11-----11---11-----10----||
|--9----9---9----9---|--9------9----9-----10----||
|--7----7---7----7---|--7------7----7------8---o||
|--------------------|--------------------------||
|
|  E E  Q   E E  E E    E S S  E E  S S E  Q
|--------------------|--------------------------||
|--------------------|-------------------------o||
|----9------9-9----9-|----9-9--9----9-9-9-10----||
|--------------------|--------------------------||
|----7------7-7----7-|----7-7--7----7-7-7--8---o||
|--------------------|--------------------------||


    B5                             B5
                  PM-|
     q   E  E  E  S   S   E  E   E  E  Q   E   E  Q
||-----------------------------|---------------------|
||o----------------------------|---------------------|
||---6------6-----6---6---6----|----6------6---6-----|
||---6------6-----6---6---6----|----6------6---6-----|
||o--4------4-----4---4---4----|----4------4---4-----|
||-----------------------------|---------------------|
|
|    q   E  E  E  S   S   E  E   E  E  Q   E   E  Q
||-----------------------------|---------------------|
||o--9------9-----9---9---9----|----9------9---9-----|
||--(6)----(6)---(6)-(6)-(6)---|---(6)----(6)-(6)----|
||---6------6-----6---6---6----|----6------6---6-----|
||o----------------------------|---------------------|
||-----------------------------|---------------------|


    B5                       B5                        C5
                              PM-|          PM-----|
  E  E  Q   E   E  E  E    E  S   S   E  E  S   S   E   Q
|------------------------|------------------------------------||
|------------------------|-----------------------------------o||
|----6------6---6-----6--|----6---6---6-----6---6---6---7-----||
|----6------6---6-----6--|----6---6---6-----6---6---6---7-----||
|----4------4---4-----4--|----4---4---4-----4---4---4---5----o||
|------------------------|------------------------------------||
|
| E  E  Q   E   E  E  E    E  S   S   E  E  S   S   E   Q
|------------------------|------------------------------------||
|----9------9---9-----9--|----9---9---9-----9---9---9--10----o||
|---(6)----(6)-(6)---(6)-|---(6)-(6)-(6)---(6)-(6)-(6)-(7)----||
|----6------6---6-----6--|----6---6---6-----6---6---6---7-----||
|------------------------|-----------------------------------o||
|------------------------|------------------------------------||


                                     Pre-Verse
                            To Coda
                   C5                 F#5
 5/4                                 4/4
    PM-----------------|   PM--|                    PM-|
    |-3--|
  E S  S S E E E E S S S S S S S S     q  E E   E   S  S E     E
|----------------------------------||----------------------------|
|----------------------------------||----------------------------|
|-6-4------------------------------||----------------------------|
|------7-6-4-------7-7-7---7-7-7---||--6----6-------6--6-6-------|
|------------7-6-4-5-5-5---5-5-5---||--6----6-------6--6-6-------|
|----------------------------------||--4----4-------4--4-4-------|
|
|   |-3--|
| E S  S S E E E E S S S S S S S S     H       +E   E.      E.
|-9-7------------------------------||----------------------------|
|-----10-9-7-----------------------||-13------(13)-14------16----|
|------------9-8-6-7-7-7---7-7-7---||----------------------------|
|------------------7-7-7---7-7-7---||-10------(10)-11------13----|
|----------------------------------||----------------------------|
|----------------------------------||----------------------------|


     F#5                      F#5                 F#5           G5
                                                  PM|     PM|
   E E Q    E   E  Q        E E Q  E E E E     E  S S E E S S E Q
|------------------------|-----------------|-----------------------
|------------------------|-----------------|-----------------------
|------------------------|-----------------|-----------------------
|----6------6---6--------|----6----6-6---6-|------6-6-6---6-6-6-7--
|----6------6---6--------|----6----6-6---6-|------6-6-6---6-6-6-7--
|----4------4---4--------|----4----4-4---4-|------4-4-4---4-4-4-5--
|
|  H       +E   E.    E.    W                 +W
|-14------(14)-----------|-----------------|-----------------------
|------------------------|-----------------|-----------------------
|-11------(11)-11----13--|-14--------------|-(14)------------------
|------------------------|-----------------|-----------------------
|---------------9----11--|-12--------------|-(12)------------------
|------------------------|-----------------|-----------------------


  F#5                             F#5
                PM-|
   q  E E   E   S  S E     E    E E Q    E   E  Q
|----------------------------|------------------------|
|----------------------------|------------------------|
|----------------------------|------------------------|
|--6----6-------6--6-6-------|----6------6---6--------|
|--6----6-------6--6-6-------|----6------6---6--------|
|--4----4-------4--4-4-------|----4------4---4--------|
|
|  H       +E   E.      E.      H       +E   E.    E.
|----------------------------|-14------(14)-17----21--|
|-13------(13)-14------16----|------------------------|
|----------------------------|-11------(11)-14----18--|
|-10------(10)-11------13----|------------------------|
|----------------------------|------------------------|
|----------------------------|------------------------|


     F#5                 F#5           G5
                         PM|     PM|
   E E Q  E E E E     E  S S E E S S E Q
|-----------------|------------------------||
|-----------------|------------------------||
|-----------------|------------------------||
|----6----6-6---6-|------6-6-6---6-6-6-7---||
|----6----6-6---6-|------6-6-6---6-6-6-7---||
|----4----4-4---4-|------4-4-4---4-4-4-5---||
|
|  W                 +W
|-20--------------|-(20)-------------------||
|-----------------|------------------------||
|-17--------------|-(17)-------------------||
|-----------------|------------------------||
|-----------------|------------------------||
|-----------------|------------------------||


 Verse #1
  Bb5                     A5
  W          +W           W          +W
|----------|------------|----------|--------|
|----------|------------|----------|--------|
|-5--------|-(5)--------|-4--------|-(4)----|
|-5--------|-(5)--------|-4--------|-(4)----|
|-3--------|-(3)--------|-2--------|-(2)----|
|----------|------------|----------|--------|
|
| W          +W           W          +W
|-8--------|-(8)--------|-7--------|-(7)----|
|-8--------|-(8)--------|-7--------|-(7)----|
|-8--------|-(8)--------|-7--------|-(7)----|
|----------|------------|----------|--------|
|----------|------------|----------|--------|
|----------|------------|----------|--------|


  Bb5                     Db/Ab
  W          +W            W           +W
|----------|------------|-----------|---------|
|----------|------------|-----------|---------|
|-5--------|-(5)--------|-----------|---------|
|-5--------|-(5)--------|--8--------|--(8)----|
|-3--------|-(3)--------|--6--------|--(6)----|
|----------|------------|--6--------|--(6)----|
|
| W          +W            W           +W
|-8--------|-(8)--------|-11--------|-(11)----|
|-8--------|-(8)--------|-11--------|-(11)----|
|-8--------|-(8)--------|-11--------|-(11)----|
|----------|------------|-13--------|-(13)----|
|----------|------------|-----------|---------|
|----------|------------|-----------|---------|


  Q.=135
  Bb5                              A5
 12/8
  W.              +W.              W.              +W.
|---------------|----------------|---------------|--------|
|---------------|----------------|---------------|--------|
|-5-------------|-(5)------------|-4-------------|-(4)----|
|-5-------------|-(5)------------|-4-------------|-(4)----|
|-3-------------|-(3)------------|-2-------------|-(2)----|
|---------------|----------------|---------------|--------|
|
| W.              +W.              W.              +W.
|-8-------------|-(8)------------|-7-------------|-(7)----|
|-8-------------|-(8)------------|-7-------------|-(7)----|
|-8-------------|-(8)------------|-7-------------|-(7)----|
|---------------|----------------|---------------|--------|
|---------------|----------------|---------------|--------|
|---------------|----------------|---------------|--------|


  Bb5
  W.              +W         +E   Q.
|---------------|----------------------||
|---------------|----------------------||
|-5-------------|-(5)--------(5)-------||
|-5-------------|-(5)--------(5)-------||
|-3-------------|-(3)--------(3)-------||
|---------------|----------------15\---||
|
| W.              +W.
|-8-------------|-(8)------------------||
|-8-------------|-(8)------------------||
|-8-------------|-(8)------------------||
|---------------|----------------------||
|---------------|----------------------||
|---------------|----------------------||


   Chorus #1
    Q=135
    D5GsuAsuBbsus4            GsuAsuBbsD54   (Csus4/D5)
   4/4
    PM         PM--|                   PM--|  ~~~
    E  E  E  E E E E  E   +E   S  S  E E E E  Q
||----------------------|-------------------------|
||o---------------------|-------------------------|
||----------------------|-------------------------|
||-----0--2--3--------2-|-(2)--0h=2h=3------------|
||o-2--0--2--3-2-2-2--2-|-(2)--0h=2h=3-2-2-2-[6]--|
||--0----------0-0-0----|--------------0-0-0------|
|
|                                             <
|   E  E  E  E Q   E  E    E   S  S  E E Q    Q
||----10-12-13-------12-|-----10-12-13-------15---|
||o---------------------|--------------------15---|
||-----7--9-10--------9-|------7--9-10-------13---|
||----------------------|-------------------------|
||o---------------------|-------------------------|
||----------------------|-------------------------|


                          1.
       GsuAsuBbsus4        N.C.
    PM          PM--|      PM
    E   E  E  E E E E  E   E  S  S  E  S  S  E  S  S  E  E
|------------------------|----------------------------------||
|------------------------|---------------------------------o||
|------------------------|----1h=2p=1-----1-----------------||
|-------0--2--3--------2-|-------------3-----3--2h=3p=2--1--||
|---2---0--2--3-2-2-2--2-|---------------------------------o||
|---0-----------0-0-0----|-0--------------------------------||
|
|  +E   E  E  E Q   E  E   E  S  S  E  S  S  E  S  S  E  E
|-(15)-10-12-13-------12-|---16-17-16----16-----------------||
|-(15)-------------------|------------18----18-17-18-17-16-o||
|-(13)--7--9-10--------9-|---13-14-13----13-----------------||
|------------------------|------------15----15-14-15-14-13--||
|------------------------|---------------------------------o||
|------------------------|----------------------------------||


                                          Verse #2
  2.
  N.C.                                     Bb5
                                  2/4     4/4
  PM
  E  S  S  E  S  S  E  S  S  E E   W       W          +W
|--------------------------------|------||----------|--------|
|--------------------------------|------||----------|--------|
|----1h=2p=1-----1---------------|------||-5--------|-(5)----|
|-------------3-----3--2h=3p=2---|------||-5--------|-(5)----|
|--------------------------------|------||-3--------|-(3)----|
|-0------------------------------|------||----------|--------|
|
| E  S  S  E  S  S  E  S  S  E E   W       W          +W
|---16-17-16----16---------------|------||-8--------|-(8)----|
|------------18----18-17-18-17---|------||-8--------|-(8)----|
|---13-14-13----13---------------|------||-8--------|-(8)----|
|------------15----15-14-15-14---|------||----------|--------|
|--------------------------------|------||----------|--------|
|--------------------------------|------||----------|--------|


  A5                      Bb5
  W          +W           W          +W
|----------|------------|----------|--------|
|----------|------------|----------|--------|
|-4--------|-(4)--------|-5--------|-(5)----|
|-4--------|-(4)--------|-5--------|-(5)----|
|-2--------|-(2)--------|-3--------|-(3)----|
|----------|------------|----------|--------|
|
| W          +W           W          +W
|-7--------|-(7)--------|-8--------|-(8)----|
|-7--------|-(7)--------|-8--------|-(8)----|
|-7--------|-(7)--------|-8--------|-(8)----|
|----------|------------|----------|--------|
|----------|------------|----------|--------|
|----------|------------|----------|--------|


  Db/Ab                            Bb5
   W           +H     +E. S  Q     W          +W
|-----------|--------------------|----------|--------|
|-----------|--------------------|----------|--------|
|-----------|--------------------|-5--------|-(5)----|
|--8--------|--(8)----(8)--------|-5--------|-(5)----|
|--6--------|--(6)----(6)--------|-3--------|-(3)----|
|--6--------|--(6)----(6)-8s15\--|----------|--------|
|
|  W           +W                  W          +W
|-11--------|-(11)---------------|-8--------|-(8)----|
|-11--------|-(11)---------------|-8--------|-(8)----|
|-11--------|-(11)---------------|-8--------|-(8)----|
|-13--------|-(13)---------------|----------|--------|
|-----------|--------------------|----------|--------|
|-----------|--------------------|----------|--------|


  A5                      Bb5
  W          +W           W          +H.       Q
|----------|------------|----------|----------------|
|----------|------------|----------|----------------|
|-4--------|-(4)--------|-5--------|-(5)------------|
|-4--------|-(4)--------|-5--------|-(5)------------|
|-2--------|-(2)--------|-3--------|-(3)------------|
|----------|------------|----------|----------15\---|
|
| W          +W           W          +W
|-7--------|-(7)--------|-8--------|-(8)------------|
|-7--------|-(7)--------|-8--------|-(8)------------|
|-7--------|-(7)--------|-8--------|-(8)------------|
|----------|------------|----------|----------------|
|----------|------------|----------|----------------|
|----------|------------|----------|----------------|


   Chorus #2
    D5GsuAsuBbsus4            GsuAsuBbsD54   (Csus4/D5)
    PM         PM--|                   PM--|  ~~~
    E  E  E  E E E E  E   +E   S  S  E E E E  Q
||----------------------|-------------------------|
||o---------------------|-------------------------|
||----------------------|-------------------------|
||-----0--2--3--------2-|-(2)--0h=2h=3------------|
||o-2--0--2--3-2-2-2--2-|-(2)--0h=2h=3-2-2-2-[6]--|
||--0----------0-0-0----|--------------0-0-0------|
|
|                                             <
|   E  E  E  E Q   E  E    E   S  S  E E Q    Q
||----10-12-13-------12-|-----10-12-13-------15---|
||o---------------------|--------------------15---|
||-----7--9-10--------9-|------7--9-10-------13---|
||----------------------|-------------------------|
||o---------------------|-------------------------|
||----------------------|-------------------------|


       GsuAsuBbsus4        N.C.
    PM          PM--|      PM
    E   E  E  E E E E  E   E  S  S  E  S  S  E  S  S  E  E
|------------------------|-----------------------------------||
|------------------------|----------------------------------o||
|------------------------|----1h=2p=1-----1------------------||
|-------0--2--3--------2-|-------------3-----3--2h=3p=2--1---||
|---2---0--2--3-2-2-2--2-|----------------------------------o||
|---0-----------0-0-0----|-0---------------------------------||
|
|  +E   E  E  E Q   E  E   E  S  S  E  S  S  E  S  S  E  E
|-(15)-10-12-13-------12-|---16-17-16----16------------------||
|-(15)-------------------|------------18----18-17-18-17-16--o||
|-(13)--7--9-10--------9-|---13-14-13----13------------------||
|------------------------|------------15----15-14-15-14-13---||
|------------------------|----------------------------------o||
|------------------------|-----------------------------------||


   Interlude #1
    Gmaj7/B           (Gmaj7/B)                 Am+5/C
   2/2
    Gtr III
     W                  E   E  E  E  +H          +W
||------------------|---9---------------------|---------------------|
||o-----------------|------10-----------------|---------------------|
||------------------|---------13--------------|---------------------|
||------------------|------------11-(11)------|-(11)----------------|
||o-----------------|-------------------------|---------------------|
||------------------|-------------------------|---------------------|
|
|   Gtr V
|    E E E  E  H       +H.                 Q      E   Q   E  +H
||------------------|-------------------------|---------------------|
||o-10-9------------|---------------------14--|--14--15--12-(12)----|
||-------9-11-------|-------------------------|---------------------|
||------------11----|-(11)--------------------|---------------------|
||o-----------------|-------------------------|---------------------|
||------------------|-------------------------|---------------------|
|
|   Gtr IV
|    W                 +W                         W
||------------------|-------------------------|---7-----------------|
||o-10--------------|-(10)--------------------|---8-----------------|
||--13--------------|-(13)--------------------|---7-----------------|
||--11--------------|-(11)--------------------|---------------------|
||o-----------------|-------------------------|---------------------|
||------------------|-------------------------|---------------------|


  1.
  (Cmaj7sus4)        Bm                 (Emadd9/A)
    E  E Q  +H       +W                   E  E E E +H
|---9--------------|------------------|---4----5------------|
|------8-----------|------------------|----------7-(7)------|
|--------7--(7)----|-(7)--------------|------4--------------|
|------------------|------------------|---------------------|
|------------------|------------------|---------------------|
|------------------|------------------|---------------------|
|
|  +W                 Q.    E  +H        +H.             Q
|------------------|------------------|---------------------|
|-(12)-------------|--9---------------|-----------------10--|
|------------------|-------11-(11)----|-(11)----------------|
|------------------|------------------|---------------------|
|------------------|------------------|---------------------|
|------------------|------------------|---------------------|
|
|  +W                 W                  +W
|--(7)-------------|--4---------------|--(4)----------------|
|--(8)-------------|--5---------------|--(5)----------------|
|--(7)-------------|--6---------------|--(6)----------------|
|------------------|------------------|---------------------|
|------------------|------------------|---------------------|
|------------------|------------------|---------------------|


  (Cmadd9/G)            (Cmadd9/G)
   E  E E  E E E E  E     E  E E  E   E  E E  E
|--0---------0--------|---0-----------0-----------||
|-----6--------6------|------6-----------6-------o||
|-------7--------7----|--------7-----------7-(7)--||
|----------7--------7-|-----------7-----------7---||
|---------------------|--------------------------o||
|---------------------|---------------------------||
|
|  Q.      H        E    +Q.      E  +H
|---------------------|---------------------------||
|-12------10-------10-|-(10)-----10-(10)---------o||
|---------------------|---------------------------||
|---------------------|---------------------------||
|---------------------|--------------------------o||
|---------------------|---------------------------||
|
|  W                     +W
|--5------------------|--(5)----------------------||
|--6------------------|--(6)---------------------o||
|--7------------------|--(7)----------------------||
|---------------------|---------------------------||
|---------------------|--------------------------o||
|---------------------|---------------------------||


  2.
  (Cmaj7sus4)         Bm                 (Emadd9/A)
    E  E Q  +H        +W                   E  E E E +H
|---9---------------|------------------|---4----5----------|
|------8------------|------------------|----------7-(7)----|
|--------7--(7)-----|-(7)--------------|------4------------|
|-------------------|------------------|-------------------|
|-------------------|------------------|-------------------|
|-------------------|------------------|-------------------|
|
|   H.           Q     Q.    E  +H        +H         H
|-------------------|------------------|-------------------|
|-(12)-----------9--|--9---------------|------------10-----|
|-------------------|-------11-(11)----|-(11)--------------|
|-------------------|------------------|-------------------|
|-------------------|------------------|-------------------|
|-------------------|------------------|-------------------|
|
|   W                  W                  +W
|---7---------------|--4---------------|--(4)--------------|
|---8---------------|--5---------------|--(5)--------------|
|--(7)--------------|--6---------------|--(6)--------------|
|-------------------|------------------|-------------------|
|-------------------|------------------|-------------------|
|-------------------|------------------|-------------------|


  (Cmadd9/G)         (Cmadd9/G)
 4/4
   E E E E E E E E    E  E E E E E E E
|--0-------0-------|--0--------0-------||
|----6-------6-----|-----6-------6-----||
|------7-------7---|-------7-------7---||
|--------7-------7-|---------7-------7-||
|------------------|-------------------||
|------------------|-------------------||
|
|  W                  W
|------------------|-------------------||
|-12---------------|-10----------------||
|------------------|-------------------||
|------------------|-------------------||
|------------------|-------------------||
|------------------|-------------------||
|
|  W                 +W
|--5---------------|-(5)---------------||
|--6---------------|-(6)---------------||
|--7---------------|-(7)---------------||
|------------------|-------------------||
|------------------|-------------------||
|------------------|-------------------||


 Bridge
  E5                          E5            Bb5
 4/4
  Gtr I
  PM--------------------------------------|   PM|
  E S E S E S S S S S S S S   E S E S E S S E S S E
|---------------------------|-----------------------|
|---------------------------|-----------------------|
|---------------------------|-----------------------|
|---------------------------|---------------5-----5-|
|-4---4---4-4-2-1-----------|-4---4---4-----3-----3-|
|-2-0-2-0-2-------3-2-0h2h3-|-2-0-2-0-2-2-2---2-2---|


  E5                          E5            C5B5      Bb5
  PM--------------------------------------|     PM|
  E S E S E S S S S S S S S   E S E S E S S S S S S S S
|---------------------------|---------------------------|
|---------------------------|---------------------------|
|---------------------------|---------------------------|
|---------------------------|---------------7s6-----6s5-|
|-4---4---4-4-2-1-----------|-4---4---4-----5s4-----4s3-|
|-2-0-2-0-2-------3-2-0-2-3-|-2-0-2-0-2-2-2-----2-2-----|


  E5                           E5               Bb5
   PM-----------------------------------------|   PM|
   E S E S E S S S S S S S S     E  S E S E S S E S S E
|----------------------------|--------------------------|
|----------------------------|--------------------------|
|----------------------------|--------------------------|
|----------------------------|------------------5-----5-|
|--4---4---4-4-2-1-----------|---4----4---4-----3-----3-|
|--2-0-2-0-2-------3-2-0-2-3-|---2--0-2-0-2-2-2---2-2---|
|
| Gtr IV
|  W                            +W
|----------------------------|--------------------------|
|----------------------------|--------------------------|
|-11-------------------------|-(11)---------------------|
|----------------------------|--------------------------|
|--9-------------------------|--(9)---------------------|
|----------------------------|--------------------------|


  E5                             E5               C5B5      Bb5
    PM------------------------------------------|     PM|
    E  S E S E S S S S S S S S     E  S E S E S S S S S S S S
|------------------------------|------------------------------||
|------------------------------|------------------------------||
|------------------------------|------------------------------||
|------------------------------|------------------7s6-----6s5-||
|---4----4---4-4-2-1-----------|---4----4---4-----5s4-----4s3-||
|---2--0-2-0-2-------3-2-0-2-3-|---2--0-2-0-2-2-2-----2-2-----||
|
|  +W                             +W
|------------------------------|------------------------------||
|------------------------------|------------------------------||
|-(11)-------------------------|-(11)-------------------------||
|------------------------------|------------------------------||
|--(9)-------------------------|--(9)-------------------------||
|------------------------------|------------------------------||


 Verse #3
  N.C.                                          D5
   PM-----------------------------------------|   PM|
   E S E S E S S S S S S S S     E  S E S E S S E S S E
|----------------------------|--------------------------|
|----------------------------|--------------------------|
|----------------------------|--------------------------|
|----------------------------|------------------9-----9-|
|------------8-6-5-----------|------------------7-----7-|
|--6-4-6-4-6-------7-6-4-6-7-|---6--4-6-4-6-6-6---6-6---|
|
|  W                            +W
|----------------------------|--------------------------|
|-11-------------------------|-(11)---------------------|
|----------------------------|--------------------------|
|--8-------------------------|--(8)---------------------|
|----------------------------|--------------------------|
|----------------------------|--------------------------|


  N.C.                                            E5 D#5       D5
    PM------------------------------------------|       PM|
    E  S E S E S S S S S S S S     E  S E S E S S  S  S S S  S S
|------------------------------|----------------------------------|
|------------------------------|----------------------------------|
|------------------------------|----------------------------------|
|------------------------------|------------------11s10-----10s9--|
|--------------8-6-5-----------|-------------------9s=8------8s7--|
|---6--4-6-4-6-------7-6-4-6-7-|---6--4-6-4-6-6-6-------6-6-------|
|
|  +W                             +W
|------------------------------|----------------------------------|
|-(11)-------------------------|-(11)-----------------------------|
|------------------------------|----------------------------------|
|--(8)-------------------------|--(8)-----------------------------|
|------------------------------|----------------------------------|
|------------------------------|----------------------------------|


  Bb5
      PM----------------------------------------
   E  S  S  S  S  S  S  S  S  S  S  S  S  S  S
|----------------------------------------------|
|----------------------------------------------|
|----------------------------------------------|
|-10-------------------------------------------|
|-10-10-10-10-10-10-10-10-10-10-10-10-10-10-10-|
|--8--8--8--8--8--8--8--8--8--8--8--8--8--8--8-|
|
|  W
|----------------------------------------------|
|-13-------------------------------------------|
|----------------------------------------------|
|-10-------------------------------------------|
|----------------------------------------------|
|----------------------------------------------|


  Bb5
 ------------------------------------------|
    S   S  S  S  S  S  S  S  S S S S S S S S
|---------------------------------------------|
|---------------------------------------------|
|---------------------------------------------|
|---------------------------------------------|
|--10--10-10-10-10-10-10-10-10-8-7------------|
|---8---8--8--8--8--8--8--8--------9-8-6-8-9--|
|
|  +W
|---------------------------------------------|
|-(13)----------------------------------------|
|---------------------------------------------|
|-(10)----------------------------------------|
|---------------------------------------------|
|---------------------------------------------|


  Bb5
        PM----------------------------------------
    E   S  S  S  S  S  S  S  S  S  S  S  S  S  S
|------------------------------------------------|
|------------------------------------------------|
|------------------------------------------------|
|--10--------------------------------------------|
|--10--10-10-10-10-10-10-10-10-10-10-10-10-10-10-|
|---8---8--8--8--8--8--8--8--8--8--8--8--8--8--8-|
|
|  +W
|------------------------------------------------|
|-(13)-------------------------------------------|
|------------------------------------------------|
|-(10)-------------------------------------------|
|------------------------------------------------|
|------------------------------------------------|


                                        D.S. al Coda
  Bb5
 ------------------------------------------------|
    S   S  S  S  S  S  S  S  S  S  S  S  S  S  S  S
|----------------------------------------------------||
|----------------------------------------------------||
|----------------------------------------------------||
|----------------------------------------------------||
|--10--10-10-10-10-10-10-10-10-10-10-10-10-10-10-10--||
|---8---8--8--8--8--8--8--8--8--8--8--8--8--8--8--8--||
|
|  +W
|----------------------------------------------------||
|-(13)-----------------------------------------------||
|----------------------------------------------------||
|-(10)-----------------------------------------------||
|----------------------------------------------------||
|----------------------------------------------------||


 Interlude #2
  &
  G#5
  Gtr I
   q           E     E      E      S   S  E      E
   |                 |             |   |  |
   /                 /             /   /  /

  Gtr VI
   H                       +E      E.        E.
|-----------------------------------------------------|
|-----------------------------------------------------|
|-----------------------------------------------------|
|-10----------------------(10)----11--------13--------|
|-----------------------------------------------------|
|-----------------------------------------------------|
|
| Gtr II
|  S  S  S  S  S  S  S  S   S   S  S   S  S  S   S  S
|-----------------------------------------------------|
|-----------------------------------------------------|
|-------------------11-13--14--13-11------------------|
|-----------------------------------------------------|
|-11-12-14-11-12-14-------------------12-11-12--14-12-|
|-----------------------------------------------------|
|
| Gtr I
|  S  S  S  S  S  S  S  S   S   S  S   S  S  S   S  S
|-----------------------------------------------------|
|-----------------------------------------------------|
|-----------------------------------------------------|
|--------------------4--6---7---6--4------------------|
|-----------------------------------------------------|
|--4--5--7--4--5--7--------------------5--4--5---7--5-|


   E          E       Q           E     E      Q
              |                   |     |
              /                   /     /

   E         +H                         E.        E.
|----------------------------------------------------------|
|----------------------------------------------------------|
|-10b11=====(10)r------------------------------------------|
|----------------------------------------------------------|
|---------------------------------------9--------11--------|
|----------------------------------------------------------|
|
|  S      S   S    S  S  S  S  S  S  S  S   S  S  S   S  S
|--------------------------11-12-14-12-11------------------|
|----------------------------------------------------------|
|-11-----13--14---11-13-14-----------------14-13-11--13-14-|
|----------------------------------------------------------|
|----------------------------------------------------------|
|----------------------------------------------------------|
|
|  S      S   S    S  S  S  S  S  S  S  S   S  S  S   S  S
|----------------------------------------------------------|
|---------------------------4--5--7--5--4------------------|
|----------------------------------------------------------|
|--4------6---7----4--6--7------------------7--6--4---6--7-|
|----------------------------------------------------------|
|----------------------------------------------------------|


   E      E     Q           E     E      E      E
          |                 |     |             |
          /                 /     /             /

   H.                                   +E      S  S
|----------------------------------------------------|
|----------------------------------------------------|
|----------------------------------------------------|
|-----------------------------------------------9-10-|
|-12-----------------------------------(12)----------|
|----------------------------------------------------|
|
|  S   S  S  S  S  S  S  S  S  S  S  S   S   S  S  S
|--------------------------------14-16--17--16-14s12-|
|-13--14-16-14-13------------------------------------|
|-----------------14-13----13-14---------------------|
|-----------------------16---------------------------|
|----------------------------------------------------|
|----------------------------------------------------|
|
|  S   S  S  S  S  S  S  S  S  S  S  S   S   S  S  S
|----------------------------------------------------|
|---------------------------------7--9--10---9--7s=5-|
|--5---6--8--6--5------------------------------------|
|------------------7--6--4--6--7---------------------|
|----------------------------------------------------|
|----------------------------------------------------|


                                       A5
   E     S  S  E     E     S   S  E     Q
         |  |  |           |   |  |     |
         /  /  /           /   /  /     /

   S  S  S  S  S  S  S  S  E.        S  E  E
|---------------------------------------------|
|--------------------------7------------9-10--|
|--8-----------------8--9------------9--------|
|----10--9--7--9-10---------------------------|
|---------------------------------------------|
|---------------------------------------------|
|
|                                       ~~
|  S  S  S  S  S  S  S  S  S   S  S  S  Q
|-------------11-12-14-12-11------------------|
|---------------------------------------------|
|-13-11-13-14-----------------14-13-11-13-----|
|---------------------------------------------|
|---------------------------------------------|
|---------------------------------------------|
|
|                                       ~~
|  S  S  S  S  S  S  S  S  S   S  S  S  Q
|---------------------------------------------|
|--------------4--5--7--5--4------------------|
|---------------------------------------------|
|--6--4--6--7------------------7--6--4--6-----|
|---------------------------------------------|
|---------------------------------------------|


  G#5
   q            E     E     E     S   S  E      E
   |                  |           |   |  |
   /                  /           /   /  /

   Q.                 Q           E.        E.
|------------------------------------------11--------|
|--9-----------------13----------14------------------|
|----------------------------------------------------|
|----------------------------------------------------|
|----------------------------------------------------|
|----------------------------------------------------|
|
|  S   S  S  S  S  S  S  S  S  S  S   S  S  S   S  S
|----------------------------------------------------|
|----------------------------------------------------|
|--------------------11-13-14-13-11------------------|
|----------------------------------------------------|
|-11--12-14-11-12-14-----------------12-11-12--14-12-|
|----------------------------------------------------|
|
|  S   S  S  S  S  S  S  S  S  S  S   S  S  S   S  S
|----------------------------------------------------|
|----------------------------------------------------|
|----------------------------------------------------|
|---------------------4--6--7--6--4------------------|
|----------------------------------------------------|
|--4---5--7--4--5--7------------------5--4--5---7--5-|


   E          E       Q           E     E            Q
              |                   |     |
              /                   /     /

   E         +H                         S      +E       S      +E
|-13b14=====(13)r----------------------16b17==(16)r----20b21==(20)r----|
|----------------------------------------------------------------------|
|----------------------------------------------------------------------|
|----------------------------------------------------------------------|
|----------------------------------------------------------------------|
|----------------------------------------------------------------------|
|
|  S      S   S    S  S  S  S  S  S  S  S       S    S  S       S    S
|--------------------------11-12-14-12-11------------------------------|
|----------------------------------------------------------------------|
|-11-----13--14---11-13-14---------------------14---13-11------13---14-|
|----------------------------------------------------------------------|
|----------------------------------------------------------------------|
|----------------------------------------------------------------------|
|
|  S      S   S    S  S  S  S  S  S  S  S       S    S  S       S    S
|----------------------------------------------------------------------|
|---------------------------4--5--7--5--4------------------------------|
|----------------------------------------------------------------------|
|--4------6---7----4--6--7----------------------7----6--4-------6----7-|
|----------------------------------------------------------------------|
|----------------------------------------------------------------------|


   E     E     Q           E     E     E     E
         |                 |     |           |
         /                 /     /           /

   W
|-20----------------------------------------------|
|-------------------------------------------------|
|-------------------------------------------------|
|-------------------------------------------------|
|-------------------------------------------------|
|-------------------------------------------------|
|
|  S  S  S  S  S  S  S  S  S  S  S  S  S  S  S  S
|-------------------------------14-16-17-16-14s12-|
|-13-14-16-14-13----------------------------------|
|----------------14-13----13-14-------------------|
|----------------------16-------------------------|
|-------------------------------------------------|
|-------------------------------------------------|
|
|  S  S  S  S  S  S  S  S  S  S  S  S  S  S  S  S
|-------------------------------------------------|
|--------------------------------7--9-10--9--7s=5-|
|--5--6--8--6--5----------------------------------|
|-----------------7--6--4--6--7-------------------|
|-------------------------------------------------|
|-------------------------------------------------|


                                         A5
    E       S  S  E     E     S  S  E     Q
            |  |  |           |  |  |     |
            /  /  /           /  /  /     /
[ Tab from: http://www.guitaretab.com/s/symphony-x/113526.html ]
                                              \1____|
   +H..                                      +S    +S
|-(20)--------------------------------------(20)--(20)-|
|------------------------------------------------------|
|------------------------------------------------------|
|------------------------------------------------------|
|------------------------------------------------------|
|------------------------------------------------------|
|
|                                         ~~
|   S    S  S  S  S  S  S  S  S  S  S  S  Q
|----------------11-12-14-12-11------------------------|
|------------------------------------------------------|
|--13---11-13-14----------------14-13-11-13------------|
|------------------------------------------------------|
|------------------------------------------------------|
|------------------------------------------------------|
|
|                                         ~~
|   S    S  S  S  S  S  S  S  S  S  S  S  Q
|------------------------------------------------------|
|-----------------4--5--7--5--4------------------------|
|------------------------------------------------------|
|---6----4--6--7-----------------7--6--4--6------------|
|------------------------------------------------------|
|------------------------------------------------------|


  E5
   q           E     E     E     S  S  E     E
   |                 |           |  |  |
   /                 /           /  /  /

   E     S  S  e     E     S  S  S  S  S  S  S  S
|-16-------16----------------------16-------------|
|-------18----18----17----16-17-18----18-17-15----|
|----------------------------------------------17-|
|-------------------------------------------------|
|-------------------------------------------------|
|-------------------------------------------------|
|
|  S  S  S  S  S  S  S  S  S  S  S  S  S  S  S  S
|-------------------------------------------------|
|-------------------------------------------------|
|----------------------------------------13-------|
|-------------------------------12-14-15----15-14-|
|-------11-14-11----------11-14-------------------|
|-12-13----------13-12-13-------------------------|
|
|  S  S  S  S  S  S  S  S  S  S  S  S  S  S  S  S
|-------------------------------------------------|
|-------------------------------------------------|
|----------------------------------16-17-19-17-16-|
|-------------------------------19----------------|
|-------17-19-17----------17-19-------------------|
|-19-20----------20-19-20-------------------------|


   E     E     Q                  E         E        Q
         |                        |         |
         /                        /         /

   S  S  S  S  S  S  S      +E       E         +E       S      +E
|----------------------------------------------------------------------|
|-------16-------------------------------------------------------------|
|-16-17----17-16-14-12b13==(12)r----13b14=====(13)r----15b16==(15)r----|
|----------------------------------------------------------------------|
|----------------------------------------------------------------------|
|----------------------------------------------------------------------|
|
|  S  S  S  S  S  S  S       S    S  S      S   S    S  S       S    S
|---------------------------12-----------------------------------------|
|-------------12-13-15-----------15-13-----12--------------------------|
|----------13----------------------------------13----------------------|
|-12-14-15------------------------------------------15-14------12---14-|
|----------------------------------------------------------------------|
|----------------------------------------------------------------------|
|
|  S  S  S  S  S  S  S       S    S  S      S   S    S  S       S    S
|-------------------17------19---20-19-----17--------------------------|
|-------------17-18----------------------------21----------------------|
|----16-17-19---------------------------------------17-----------------|
|-19---------------------------------------------------21------19---21-|
|----------------------------------------------------------------------|
|----------------------------------------------------------------------|


   E          E       Q            E     E     E     E
              |                    |     |           |
              /                    /     /           /

   E         +E      +H.
|---------------------------------------------------------|
|-14b15=====(14)----(14)----------------------------------|
|---------------------------------------------------------|
|---------------------------------------------------------|
|---------------------------------------------------------|
|---------------------------------------------------------|
|
|  S      S   S   S   S   S  S  S  S  S  S  S  S  S  S  S
|--------------------13--16-13-12-------------------------|
|----------------15---------------15----------------------|
|--------13--16----------------------------------------13-|
|-15---------------------------------14-12----12-14-15----|
|------------------------------------------15-------------|
|---------------------------------------------------------|
|
|  S      S   S   S   S   S  S  S  S  S  S  S  S  S  S  S
|----------------17--20--23-20-19-17----------------------|
|--------17--19----------------------------------------17-|
|-17---------------------------------16-14----14-16-17----|
|------------------------------------------17-------------|
|---------------------------------------------------------|
|---------------------------------------------------------|


                                                   F5
    E       S            S  E     E     S  S  E     Q
            |            |  |           |  |  |     |
            /            /  /           /  /  /     /

   +E       T      +T    S  E     E     E     E     E  E
|---------------------------------------------------------|
|-(14)r----16b17==(16)r-18-17----15-------------------16--|
|--------------------------------------17----16----14-----|
|---------------------------------------------------------|
|---------------------------------------------------------|
|---------------------------------------------------------|
|
|                                                   ~~
|   S    S  S            S  S  S  S  S  S  S  S  S  Q
|---------------------------------------------------------|
|---------------------------------------------------------|
|---------------------------------------------------------|
|--15---14-12--------------------------12-14-15-12-14-----|
|-----------------------15-14-12-14-15--------------------|
|---------------------------------------------------------|
|
|                                                   ~~
|   S    S  S            S  S  S  S  S  S  S  S  S  Q
|---------------------------------------------------------|
|---------------------------------------------------------|
|--17---16-14--------------------------14-16-17-14-16-----|
|-----------------------17-16-14-16-17--------------------|
|---------------------------------------------------------|
|---------------------------------------------------------|


  E5
   q                  E     E     E     S   S  E      E
   |                        |           |   |  |
   /                        /           /   /  /

   E         +Q             Q           E.        E.
|----------------------------------------------------------|
|-16b17=====(16)r------------------------------------------|
|------------------------------------------------13--------|
|--------------------------14----------15------------------|
|----------------------------------------------------------|
|----------------------------------------------------------|
|
|  S      S   S    S  S  S  S  S  S  S  S   S  S  S   S  S
|----------------------------------------------------------|
|----------------------------------------------------------|
|------------------------------------------------13--------|
|--------------------------------------12--14-15-----15-14-|
|------------11---14-11----------11-14---------------------|
|-12-----13-------------13-12-13---------------------------|
|
|  S      S   S    S  S  S  S  S  S  S  S   S  S  S   S  S
|----------------------------------------------------------|
|----------------------------------------------------------|
|------------------------------------------16-17-19--17-16-|
|--------------------------------------19------------------|
|------------17---19-17----------17-19---------------------|
|-19-----20-------------20-19-20---------------------------|


   E      E      Q           E     E     Q
          |                  |     |
          /                  /     /

   E.        E.        E     E     S  S  S  S  S  S
|---------------------------------------------------|
|---------------------------------------------------|
|---------------------------13-------13-------------|
|-12--------14--------15----------15----15-14-12----|
|------------------------------------------------15-|
|---------------------------------------------------|
|
|  S   S  S  S   S  S  S  S  S  S  S  S  S  S  S  S
|------------------------12-------------------------|
|---------------12-13-15----15-13-12----------------|
|-----------13-----------------------13-------------|
|-12--14-15-----------------------------15-14-12-14-|
|---------------------------------------------------|
|---------------------------------------------------|
|
|  S   S  S  S   S  S  S  S  S  S  S  S  S  S  S  S
|---------------------17-19-20-19-17----------------|
|---------------17-18----------------21-------------|
|-----16-17-19--------------------------17----------|
|-19---------------------------------------21-19-21-|
|---------------------------------------------------|
|---------------------------------------------------|


   E     E     Q            E       E      E     E
         |                  |       |            |
         /                  /       /            /

   H                       +E       Q.
|-----------------------------------------------------|
|-----------------------------------------------------|
|-----------------------------------------------------|
|---------------------------------/14-----------------|
|-14----------------------(14)------------------------|
|-----------------------------------------------------|
|
|  S  S  S  S  S  S  S  S   S   S   S   S  S  S  S  S
|-------------13-16-13-12-----------------------------|
|----------15--------------15-------------------------|
|----13-16-----------------------------------------13-|
|-15---------------------------14--12-----12-14-15----|
|--------------------------------------15-------------|
|-----------------------------------------------------|
|
|  S  S  S  S  S  S  S  S   S   S   S   S  S  S  S  S
|----------17-20-23-20-19--17-------------------------|
|----17-19-----------------------------------------17-|
|-17---------------------------16--14-----14-16-17----|
|--------------------------------------17-------------|
|-----------------------------------------------------|
|-----------------------------------------------------|


                                                   F5
   E            S  S  E     E     S       S   E      Q
                |  |  |           |       |   |      |
                /  /  /           /       /   /      /

   S      +E.         Q           S      +E.        +Q
|---------------------------------------------------------||
|--------------------------------16b17==(16)-------(16)r--||
|--------------------16-----------------------------------||
|-17b18==(17)r--------------------------------------------||
|---------------------------------------------------------||
|---------------------------------------------------------||
|
|                                                    ~~~~~
|  S       S    S  S  S  S  S  S  S       S   S  S   Q
|---------------------------------------------------------||
|---------------------------------------------------------||
|---------------------------------------------------------||
|-15------14---12----------------12------14--15-12--14----||
|-----------------15-14-12-14-15--------------------------||
|---------------------------------------------------------||
|
|                                                    ~~~~~
|  S       S    S  S  S  S  S  S  S       S   S  S   Q
|---------------------------------------------------------||
|---------------------------------------------------------||
|-17------16---14----------------14------16--17-14--16----||
|-----------------17-16-14-16-17--------------------------||
|---------------------------------------------------------||
|---------------------------------------------------------||


 Guitar Solo
  E5
  Gtr I
       \0.5
                         ~~~~
                                       |---3---|
   E  +Q             E  +Q.            S  S    S
|------------------------------------------------|
|-14-(14)----------------------------------------|
|----------------------------------------12---15-|
|-------------------16-(16)-----------16---------|
|------------------------------------------------|
|------------------------------------------------|
|
| Gtr IV
|  W
|------------------------------------------------|
|------------------------------------------------|
|-11---------------------------------------------|
|------------------------------------------------|
|--9---------------------------------------------|
|------------------------------------------------|
|
| Gtr II
|  PM---------------------------------------------
|  E   S    S +S  S  E   S  S S S S S  S    S
|------------------------------------------------|
|------------------------------------------------|
|------------------------------------------------|
|------------------------------------------------|
|--4--------4-(4)----4---4--2-1------------------|
|--2---0----2-(2)-0--2----------3-2-0h=2h===3----|


  E5                              Bb5
                       /    |
                                |--3--|
    S   S  S  S  +S   +T   +T   S  S  S  S  T  T  S  S  S  S  S  S
|------------------------------------------------------------------|
|------14-15-18-(18)-(18)-(18)-15h18p15-14-15p14-13-13-14-13-\9-10-|
|--16--------------------------------------------------------------|
|------------------------------------------------------------------|
|------------------------------------------------------------------|
|------------------------------------------------------------------|
|
|  +W
|------------------------------------------------------------------|
|------------------------------------------------------------------|
|-(11)-------------------------------------------------------------|
|------------------------------------------------------------------|
|--(9)-------------------------------------------------------------|
|------------------------------------------------------------------|
|
|------------------------------------------|            PM|
|   E      S  S  +S    S        E        S  S     E     S  S  E
|------------------------------------------------------------------|
|------------------------------------------------------------------|
|------------------------------------------------------------------|
|-------------------------------------------------5-----------5----|
|---4---------4--(4)------------4-----------------3-----------3----|
|---2------0--2--(2)---0--------2--------2--2-----------2--2-------|


  E5
                                      |-3--|  |------6-------|  |------6------|
    S   +T       +T    S  T  T  T T S S  S S  S S   S  S S   S  S S   S S S   S
|------------------------------------------9h10p9p==7---------------------------|
|--13--(13)b16==(13)r-13p10h13p10p9-7h9h10------------10p7h==9-10p9p==7-7p6h==7h|
|-------------------------------------------------------------------------------|
|-------------------------------------------------------------------------------|
|-------------------------------------------------------------------------------|
|-------------------------------------------------------------------------------|
|
|  +W
|-------------------------------------------------------------------------------|
|-------------------------------------------------------------------------------|
|-(11)--------------------------------------------------------------------------|
|-------------------------------------------------------------------------------|
|--(9)--------------------------------------------------------------------------|
|-------------------------------------------------------------------------------|
|
|   PM---------------------------------------------------------------------------
|   E                  S  E         S E       S   S    S   S    S   S   S   S
|-------------------------------------------------------------------------------|
|-------------------------------------------------------------------------------|
|-------------------------------------------------------------------------------|
|-------------------------------------------------------------------------------|
|---4---------------------4-----------4-------4---2----1------------------------|
|---2------------------0--2---------0-2--------------------3----2---0---2---3---|


  E5                  C5  B5                                   Bb5
                                                           /     |
                                                    ~~~
    |------6------| |-----6------| |------6------|
    S  S S  S S   S S S   S  S S S S S   S S S   S  E     +S    +S
|-----------------------------------------------------------------------||
|---9p=7p6-\2h3h==5-----------------------------------------------------||
|-------------------7p6p==4-\1h2h4h5p4p==2h4p2p==1----------------------||
|--------------------------------------------------[4]---([4])-([4])----||
|-----------------------------------------------------------------------||
|-----------------------------------------------------------------------||
|
|  +W
|-----------------------------------------------------------------------||
|-----------------------------------------------------------------------||
|-(11)------------------------------------------------------------------||
|-----------------------------------------------------------------------||
|--(9)------------------------------------------------------------------||
|-----------------------------------------------------------------------||
|
|--------------------------------------|            PM-|
|   E       S   E       S    E     S   S   S   S    S  S   S     S
|-----------------------------------------------------------------------||
|-----------------------------------------------------------------------||
|-----------------------------------------------------------------------||
|------------------------------------------7s==6-----------6s====5------||
|---4-----------4------------4-------------5s==4-----------4s====3------||
|---2-------0---2-------0----2-----2---2------------2--2----------------||


 Keyboard Solo
  N.C.
  Gtr VI
   S      +Q       +S   +S       +S    Q        Q
|-------------------------------------------------------|
|-17b18==(17)-----(17)r(17)b18==(17)r-------------------|
|-------------------------------------18-------17-------|
|-------------------------------------------------------|
|-------------------------------------------------------|
|-------------------------------------------------------|
|
|  W
|-------------------------------------------------------|
|-11----------------------------------------------------|
|-------------------------------------------------------|
|--8----------------------------------------------------|
|-------------------------------------------------------|
|-------------------------------------------------------|
|
|  PM----------------------------------------------------
|  E          S E   S    E             S S S S  S S S S
|-------------------------------------------------------|
|-------------------------------------------------------|
|-------------------------------------------------------|
|-------------------------------------------------------|
|--------------------------------------8-6-5------------|
|--6----------4-6---4----6-------------------7--6-4-6-7-|


                                                 D5
    S      +S   +S   +S   +S       +S    S  S  S  S  S  S  S  S  E
|------------------------------------------------------17-18-20-20-|
|------------------------------------------------17-18-------------|
|--14b15==(14)-(14)-(14)r(14)b15==(14)r-15-17-18-------------------|
|------------------------------------------------------------------|
|------------------------------------------------------------------|
|------------------------------------------------------------------|
|
|  +W
|------------------------------------------------------------------|
|-(11)-------------------------------------------------------------|
|------------------------------------------------------------------|
|--(8)-------------------------------------------------------------|
|------------------------------------------------------------------|
|------------------------------------------------------------------|
|
|------------------------------------------------|         PM|
|   E            S    E             S    E     S  S  E     S  S  E
|------------------------------------------------------------------|
|------------------------------------------------------------------|
|------------------------------------------------------------------|
|----------------------------------------------------9-----------9-|
|----------------------------------------------------7-----------7-|
|---6------------4----6-------------4----6-----6--6--------6--6----|


  N.C.
         \1/                 \1/
   +S   +E      E.    E.    +S    E.      E.
|-(20)-(20)----17----18----(18)------------------|
|--------------------------------17------18------|
|------------------------------------------------|
|------------------------------------------------|
|------------------------------------------------|
|------------------------------------------------|
|
|  +W
|------------------------------------------------|
|-(11)-------------------------------------------|
|------------------------------------------------|
|--(8)-------------------------------------------|
|------------------------------------------------|
|------------------------------------------------|
|
|   PM--------------------------------------------
|   E        S  E  S  E  S   S    S  S S  S  S S
|------------------------------------------------|
|------------------------------------------------|
|------------------------------------------------|
|------------------------------------------------|
|------------------------8---6----5--------------|
|---6--------4--6--4--6--------------7-6--4--6-7-|


                             E5  D#5    D5
                               \1/
    E.    E.    E  Q          +Q
|--16----15-------------------------------||
|--------------17-18---------(18)---------||
|-----------------------------------------||
|-----------------------------------------||
|-----------------------------------------||
|-----------------------------------------||
|
|  +W
|-----------------------------------------||
|-(11)------------------------------------||
|-----------------------------------------||
|--(8)------------------------------------||
|-----------------------------------------||
|-----------------------------------------||
|
|--------------------|         PM--|
|   E  S  E  S  E  S S  S  S   S   S  S S
|-----------------------------------------||
|-----------------------------------------||
|-----------------------------------------||
|----------------------11s10---------10s9-||
|-----------------------9s=8----------8s7-||
|---6--4--6--4--6--6-6---------6---6------||


 Guitar & Keyboard Unison
  Bb5
  Gtrs I, VI
             \1/
   Q        +S    S  S  S  S  S  S  S  S  S  S  S
|-------------------------------------------------|
|-------------------------------------------------|
|-------------------------------------------------|
|-------------------------14----15-14-17-15-18-17-|
|-15-------(15)--15-16-15----16-------------------|
|-------------------------------------------------|
|
|  W
|-------------------------------------------------|
|-13----------------------------------------------|
|-------------------------------------------------|
|-10----------------------------------------------|
|-------------------------------------------------|
|-------------------------------------------------|
|
|     PM-------------------------------------------
|  E  S  S   S    S  S  S  S  S  S  S  S  S  S  S
|-------------------------------------------------|
|-------------------------------------------------|
|-------------------------------------------------|
|-10----------------------------------------------|
|-10-10-10--10---10-10-10-10-10-10-10-10-10-10-10-|
|--8--8--8---8----8--8--8--8--8--8--8--8--8--8--8-|


  Bb5
    S   S  S  S  S  S  S  S  S  S  S  S  S  S  S      +S
|------------------------------------15-16-18-18b19==(18)--|
|------------------------------17-18-----------------------|
|--15-----17-15-18-17-15-17-18-----------------------------|
|------18--------------------------------------------------|
|----------------------------------------------------------|
|----------------------------------------------------------|
|
|  +W
|----------------------------------------------------------|
|-(13)-----------------------------------------------------|
|----------------------------------------------------------|
|-(10)-----------------------------------------------------|
|----------------------------------------------------------|
|----------------------------------------------------------|
|
|----------------------------------------------------|
|   S   S  S  S  S  S  S  S  S  S  S  S  S  S  S       S
|----------------------------------------------------------|
|----------------------------------------------------------|
|----------------------------------------------------------|
|----------------------------------------------------------|
|--10--10-10-10-10-10-10-10-10--8--7-----------------------|
|---8---8--8--8--8--8--8--8-----------9--8--6--8-------9---|


  Bb5
   +S    S  S  S  S  S  S      +E       S  S  S  S  S  S      +S
|-(18)r-16--------------------------------------------------------|
|----------18-15-16-17-17b18==(17)r----15-------------------------|
|-----------------------------------------16-13-14-15-15b16==(15)-|
|-----------------------------------------------------------------|
|-----------------------------------------------------------------|
|-----------------------------------------------------------------|
|
|  +W
|-----------------------------------------------------------------|
|-(13)------------------------------------------------------------|
|-----------------------------------------------------------------|
|-(10)------------------------------------------------------------|
|-----------------------------------------------------------------|
|-----------------------------------------------------------------|
|
|           PM-----------------------------------------------------
|   E       S  S  S  S  S       S    S  S  S  S  S  S  S       S
|-----------------------------------------------------------------|
|-----------------------------------------------------------------|
|-----------------------------------------------------------------|
|--10-------------------------------------------------------------|
|--10------10-10-10-10-10------10---10-10-10-10-10-10-10------10--|
|---8-------8--8--8--8--8-------8----8--8--8--8--8--8--8-------8--|


  Bb5
   +S    S  S  S  S  S  S  S  S  S  S  S  S  S  S  T  T
|--------------------------------------------------------||
|--------------------------------------------------------||
|-(15)r-13-----------------------------------------------||
|----------15-12-13-14-15-14-13-12-----------------------||
|----------------------------------15-14-13-12-----------||
|----------------------------------------------15-14-13--||
|
|  +W
|--------------------------------------------------------||
|-(13)---------------------------------------------------||
|--------------------------------------------------------||
|-(10)---------------------------------------------------||
|--------------------------------------------------------||
|--------------------------------------------------------||
|
|-------------------------------------------------|
|   S    S  S  S  S  S  S  S  S  S  S  S  S  S  S  S
|--------------------------------------------------------||
|--------------------------------------------------------||
|--------------------------------------------------------||
|--------------------------------------------------------||
|--10---10-10-10-10-10-10-10-10-10-10-10-10-10-10-10-----||
|---8----8--8--8--8--8--8--8--8--8--8--8--8--8--8--8-----||


 Breakdown
  D5                                  F#5
 7/4                                 4/4
   ~~~~~~~~
   E  +Q     E Q     W                 W
|-----------------------------------|----------------------------|
|-----------------------------------|----------------------------|
|-----------------------------------|----------------------------|
|-----------------------------------|----------------------------|
|-----------------------------------|----------------------------|
|-12-(12)\--------------------------|----------------------------|
|
| Gtr II                              Gtr I
|                PM|                                PM-|
|  q       E E E S S E E E E Q  E E    q  E E   E   S  S E     E
|-----------------------------------|----------------------------|
|-----------------------------------|----------------------------|
|-----------------------------------|----------------------------|
|--2---------2---2-2-2-----2----2-2-|--6----6-------6--6-6-------|
|--2---------2---2-2-2-----2----2-2-|--6----6-------6--6-6-------|
|--0---------0---0-0-0-----0----0-0-|--4----4-------4--4-4-------|
|
| Gtr IV
|  q       E E E S S E E E E Q  E E    H       +E   E.      E.
|-----------------------------------|----------------------------|
|-----------------------------------|-13------(13)-14------16----|
|--9---------9---9-9-9-----9----9-9-|----------------------------|
|-----------------------------------|-10------(10)-11------13----|
|--7---------7---7-7-7-----7----7-7-|----------------------------|
|-----------------------------------|----------------------------|


     F#5                      F#5                 F#5           G5
  Gtr I
                                                  PM|     PM|
   E E Q    E   E  Q        E E Q  E E E E     E  S S E E S S E Q
|------------------------|-----------------|-----------------------|
|------------------------|-----------------|-----------------------|
|------------------------|-----------------|-----------------------|
|----6------6---6--------|----6----6-6---6-|------6-6-6---6-6-6-7--|
|----6------6---6--------|----6----6-6---6-|------6-6-6---6-6-6-7--|
|----4------4---4--------|----4----4-4---4-|------4-4-4---4-4-4-5--|
|
| Gtr IV
|  H       +E   E.    E.    W                 +W
|-14------(14)-----------|-----------------|-----------------------|
|------------------------|-----------------|-----------------------|
|-11------(11)-11----13--|-14--------------|-(14)------------------|
|------------------------|-----------------|-----------------------|
|---------------9----11--|-12--------------|-(12)------------------|
|------------------------|-----------------|-----------------------|


  F#5                             F#5
                PM-|
   q  E E   E   S  S E     E    E E Q    E   E  Q
|----------------------------|------------------------|
|----------------------------|------------------------|
|----------------------------|------------------------|
|--6----6-------6--6-6-------|----6------6---6--------|
|--6----6-------6--6-6-------|----6------6---6--------|
|--4----4-------4--4-4-------|----4------4---4--------|
|
|  H       +E   E.      E.      H       +E   E.    E.
|----------------------------|-14------(14)-17----21--|
|-13------(13)-14------16----|------------------------|
|----------------------------|-11------(11)-14----18--|
|-10------(10)-11------13----|------------------------|
|----------------------------|------------------------|
|----------------------------|------------------------|


     F#5                 F#5           G5
                         PM|     PM|
   E E Q  E E E E     E  S S E E S S E E +E
|-----------------|----------------------------|
|-----------------|----------------------------|
|-----------------|----------------------------|
|----6----6-6---6-|------6-6-6---6-6-6-7-(7)\--|
|----6----6-6---6-|------6-6-6---6-6-6-7-(7)\--|
|----4----4-4---4-|------4-4-4---4-4-4-5-(5)\--|
|
|  W                 +W
|-20--------------|-(20)-----------------------|
|-----------------|----------------------------|
|-17--------------|-(17)-----------------------|
|-----------------|----------------------------|
|-----------------|----------------------------|
|-----------------|----------------------------|


  E5                              E5
                PM-|
   q  E E   E   S  S E     E    E E Q    E  E  Q
|----------------------------|-----------------------|
|----------------------------|-----------------------|
|----------------------------|-----------------------|
|--4----4-------4--4-4-------|----4------4--4--------|
|--4----4-------4--4-4-------|----4------4--4--------|
|--2----2-------2--2-2-------|----2------2--2--------|
|
|  H       +E   E.      E.      H       +E  E.    E.
|----------------------------|-12------(12)----------|
|-11------(11)-12------14----|-----------------------|
|----------------------------|--9-------(9)-9----11--|
|--8-------(8)--9------11----|-----------------------|
|----------------------------|--------------7-----9--|
|----------------------------|-----------------------|


     E5                  E5            F5
                         PM|     PM|
   E E Q  E E E E     E  S S E E S S E Q
|-----------------|------------------------|
|-----------------|------------------------|
|-----------------|------------------------|
|----4----4-4---4-|------4-4-4---4-4-4-5---|
|----4----4-4---4-|------4-4-4---4-4-4-5---|
|----2----2-2---2-|------2-2-2---2-2-2-3---|
|
|  W                 +W
|-----------------|------------------------|
|-----------------|------------------------|
|-12--------------|-(12)-------------------|
|-----------------|------------------------|
|-10--------------|-(10)-------------------|
|-----------------|------------------------|


  E5                              E5
                PM-|
   q  E E   E   S  S E     E    E E Q    E   E  Q
|----------------------------|------------------------|
|----------------------------|------------------------|
|----------------------------|------------------------|
|--4----4-------4--4-4-------|----4------4---4--------|
|--4----4-------4--4-4-------|----4------4---4--------|
|--2----2-------2--2-2-------|----2------2---2--------|
|
|  H       +E   E.      E.      H       +E   E.    E.
|----------------------------|-12------(12)-15----19--|
|-11------(11)-12------14----|------------------------|
|----------------------------|--9-------(9)-12----16--|
|--8-------(8)--9------11----|------------------------|
|----------------------------|------------------------|
|----------------------------|------------------------|


     E5                  E5            F5
                         PM|     PM|
   E E Q  E E E E     E  S S E E S S E Q
|-----------------|------------------------||
|-----------------|------------------------||
|-----------------|------------------------||
|----4----4-4---4-|------4-4-4---4-4-4-5---||
|----4----4-4---4-|------4-4-4---4-4-4-5---||
|----2----2-2---2-|------2-2-2---2-2-2-3---||
|
|  W                 +W
|-18--------------|-(18)-------------------||
|-----------------|------------------------||
|-15--------------|-(15)-------------------||
|-----------------|------------------------||
|-----------------|------------------------||
|-----------------|------------------------||


   Chorus #3 & 4/Outro
    D5GsuAsuBbsus4            GsuAsuBbsD54   (Csus4/F#)
    PM         PM--|                   PM--|  ~~~~~
    E  E  E  E E E E  E   +E   S  S  E E E E  Q
||----------------------|-------------------------|
||o---------------------|-------------------------|
||----------------------|-------------------------|
||-----0--2--3--------2-|-(2)--0h=2h=3------------|
||o-2--0--2--3-2-2-2--2-|-(2)--0h=2h=3-2-2-2-[6]--|
||--0----------0-0-0----|--------------0-0-0------|
|
|                                             <
|   E  E  E  E Q   E  E    E   S  S  E E Q    Q
||----10-12-13-------12-|-----10-12-13-------15---|
||o---------------------|--------------------15---|
||-----7--9-10--------9-|------7--9-10-------13---|
||----------------------|-------------------------|
||o---------------------|-------------------------|
||----------------------|-------------------------|


        GsuAsuBbsD54        N.C.
 ~~~~~~~         PM--|      PM
   +E    E  E  E E E E  E   E  S  S  E  S  S  E  S  S  E  E   3x
|-------------------------|-----------------------------------||
|-------------------------|----------------------------------o||
|-------------------------|----1h=2p=1-----1------------------||
|--------0--2--3--------2-|-------------3-----3--2h=3p=2--1---||
|-([6])--0--2--3-2-2-2--2-|----------------------------------o||
|----------------0-0-0----|-0---------------------------------||
|
|  +E    E  E  E Q   E  E   E  S  S  E  S  S  E  S  S  E  E   3x
|-(15)--10-12-13-------12-|---16-17-16----16------------------||
|-(15)--------------------|------------18----18-17-18-17-16--o||
|-(13)---7--9-10--------9-|---13-14-13----13------------------||
|-------------------------|------------15----15-14-15-14-13---||
|-------------------------|----------------------------------o||
|-------------------------|-----------------------------------||


  D5GsuAsuBbsus4            GsuAsuBbsD54   (Csus4/F#)
  PM         PM--|                   PM--|  ~~~~~
  E  E  E  E E E E  E   +E   S  S  E E E E  Q
|---------------------|-------------------------|
|---------------------|-------------------------|
|---------------------|-------------------------|
|----0--2--3--------2-|-(2)--0h=2h=3------------|
|-2--0--2--3-2-2-2--2-|-(2)--0h=2h=3-2-2-2-[6]--|
|-0----------0-0-0----|--------------0-0-0------|
|
|                                           <
| E  E  E  E Q   E  E    E   S  S  E E Q    Q
|---10-12-13-------12-|-----10-12-13-------15---|
|---------------------|--------------------15---|
|----7--9-10--------9-|------7--9-10-------13---|
|---------------------|-------------------------|
|---------------------|-------------------------|
|---------------------|-------------------------|


        GsuAsuBbsD54        N.C.
 ~~~~~~~         PM--|      PM
   +E    E  E  E E E E  E   E  S  S  E  S  S  E  S  S  E  E   W
|-------------------------|---------------------------------|------*|
|-------------------------|---------------------------------|------*|
|-------------------------|----1h=2p=1-----1----------------|------*|
|--------0--2--3--------2-|-------------3-----3--2h=3p=2--1-|------*|
|-([6])--0--2--3-2-2-2--2-|---------------------------------|------*|
|----------------0-0-0----|-0-------------------------------|------*|
|
|  +E    E  E  E Q   E  E   E  S  S  E  S  S  E  S  S  E  E   W
|-(15)--10-12-13-------12-|---16-17-16----16----------------|------*|
|-(15)--------------------|------------18----18-17-18-17-16-|------*|
|-(13)---7--9-10--------9-|---13-14-13----13----------------|------*|
|-------------------------|------------15----15-14-15-14-13-|------*|
|-------------------------|---------------------------------|------*|
|-------------------------|---------------------------------|------*|



Duration Legend
---------------
W - whole; H - half; Q - quarter; E - 8th; S - 16th; T - 32nd; X - 64th; a - acciaccatura
+ - note tied to previous; . - note dotted; .. - note double dotted
Uncapitalized letters represent notes that are staccato (1/2 duration)
Irregular groupings are notated above the duration line
Duration letters will always appear directly above the note/fret number it represents the
duration for.  Duration letters with no fret number below them represent rests.  Multi-
bar rests are notated in the form Wxn, where n is the number of bars to rest for.  Low
melody durations appear below the staff

Tablature Legend
----------------
 h   - hammer-on
 p   - pull-off
 b   - bend
 pb  - pre-bend
 r   - bend release (if no number after the r, then release immediately)
 /\  - slide into or out of (from/to "nowhere")
 s   - legato slide
 S   - shift slide
 - natural harmonic
[n]  - artificial harmonic
n(n) - tapped harmonic
 ~   - vibrato
 tr  - trill
 T   - tap
 TP  - trem. picking
 PM  - palm muting
\n/  - tremolo bar dip; n = amount to dip
 \n  - tremolo bar down
 n/  - tremolo bar up
/n\  - tremolo bar inverted dip
 =   - hold bend; also acts as connecting device for hammers/pulls
 <> - volume swell (louder/softer)
 x   - on rhythm slash represents muted slash
 o   - on rhythm slash represents single note slash

Misc Legend
-----------
 |  - bar
||  - double bar
||o - repeat start
o|| - repeat end
*|  - double bar (ending)
 :  - bar (freetime)
 $  - Segno
 &  - Coda
Tempo markers -  = BPM(8/16=s8/s16), where s8 = swing 8ths, s16 = swing 16ths

Related for Pharaoh tab