Guitaretab - guitar tabs
Song name
# A B C D E F G H I J K L M N O P Q R S T U V W X Y Z

Symphony X - The Accolade 2 tab

#----------------------------------PLEASE NOTE---------------------------------#
#This file is the author's own work and represents their interpretation of the #
#song. You may only use this file for private study, scholarship, or research. #
#------------------------------------------------------------------------------#

THE ACCOLADE II
As recorded by Symphony X
(From the 2002 Album THE ODYSSEY)

Transcribed by XeroX. XeroX.
	

Words and Music by Symphony X

Gtr I (D G C F A D) - 'Acoustic Grand'
Gtr II (D G C F A D) - 'Overdriven Guitar'
Gtr III (D G C F A D) - 'Solo'
Gtr IV (D G C F A D) - 'Pad1'
Gtr V (D G C F A D) - 'Violin'
Gtr VI (D G C F A D) - 'Acoustic Guitar'

   Piano Intro
    Q=125
    Db5                      F#m
   6/4
    Gtr I
     E  E E  E   E   E  E  E  E  E E  E
||------------------------------------7-|
||o--9-------9---9---------9-10----7----|
||--------9-------------9--------6------|
||--11-11---11--11--11--------7---------|
||o---------------------------9---------|
||---9----------------------------------|
|
|   Gtr V
|    H          +E   E  E  E  Q.      E
||--16---------(16)----12-16-17------19-|
||o-----------------14------------------|
||--------------------------------------|
||--------------------------------------|
||o-------------------------------------|
||--------------------------------------|


  Db5           Ebm               Bbm/C#        B5
   E  E E E E E  E E  E  E E  E    E  E E E E E  E E  E  E E  E
|--4------4-4---------4----4--7-|--6------6-6---------4----4--7-|
|-------5--------7-------5------|-------7-7-7----7----5---------|
|--6--6---6-6-6----4------------|--3--6-------6--4-4-----7----8-|
|----------------4----6---------|-------------------------------|
|--4-------------6----7---------|--4------------------4-------7-|
|-------------------------------|----------------7--------------|
|
|  H.            Q    Q.      E    H.            Q    Q.      E
|-16------------14---16------19-|-18-----------------16------19-|
|-------------------------------|---------------19--------------|
|-------------------------------|-------------------------------|
|-------------------------------|-------------------------------|
|-------------------------------|-------------------------------|
|-------------------------------|-------------------------------|


  1.
  A                    Ab5
   E  E E  E  E E  E E  E  E  E  E
|--9----5--9--9---12---11--9--7--9--||
|-----5---10-10---10----9----------o||
|---------------9----9--------------||
|--7--------------------------------||
|--0-------------------11----------o||
|-----------------------4-----------||
|
| Gtr V
|  H.              Q    E  E  E  E
|-21--------------24---23-21-19-21--||
|----------------------------------o||
|-----------------------------------||
|-----------------------------------||
|----------------------------------o||
|-----------------------------------||


 2.
  A                                 B7/A
   E E E  E  S  S  S  S  S  S  S  S  E  E  E  E
|--9-0-5--9--9-------------17-21-24-23-21-19----|
|-10-----10-10-------14-17----------24-------19-|
|-----------------14----------------------------|
|--7-----------14-------------------------------|
|--0--------12----------------------24----------|
|-----------------------------------17----------|
|
|  W                                 H
|-21--------------------------------23----------|
|-----------------------------------------------|
|-----------------------------------------------|
|-----------------------------------------------|
|-----------------------------------------------|
|-----------------------------------------------|


  A                                   B5/A
   E  E  E  E  S  S  S  S  S  S  S  S  E  E  E  E
|-21-------21-21-19-17----------------------------|
|-22----22-22-22-------17-------------12-------12-|
|----21-------------------14-14-14----11----11-11-|
|----------------------------------14----13-13----|
|--0----------------------------------12----------|
|-17----------------------------------------------|
|
|  W                                   H
|-21----------------------------------19----------|
|-------------------------------------------------|
|-------------------------------------------------|
|-------------------------------------------------|
|-------------------------------------------------|
|-------------------------------------------------|


                                             H.=H
  Eadd11/A E/A     B            Em
   E E E E E E E E  E E E S S    E E E E E E E E   E   E  E  E
|--------4-4-----4------------|--3-----3-3---7----12-----15-19---|
|--9---5-5-5-2-5-5--4---4-5-4-|--5---5-5-5-5---8------12---------|
|--9-6-----2--------4-4-------|----4-----------------------------|
|--7--------------------------|--2-------------------------------|
|-------------------2---------|----------------------------------|
|--5--------------------------|----------------------------------|
|
|  W                H            W                +H
|-----------------------------|----------------------------------|
|-21---------------19---------|----------------------------------|
|-----------------------------|-21---------------(21)------------|
|-----------------------------|----------------------------------|
|-----------------------------|----------------------------------|
|-----------------------------|----------------------------------|


    Q    E  Q  S  S  E  E   E   E  E  E
|--24---22-24----29-27-26--24--22-21-22-|
|---------------------------------------|
|---------------------------------------|
|---------------------------------------|
|---------------------------------------|
|---------------------------------------|
|
|  +W                      +H
|---------------------------------------|
|---------------------------------------|
|-(21)--------------------(21)----------|
|---------------------------------------|
|---------------------------------------|
|---------------------------------------|


                                     Q=100
                                    4/4
    E   Q   Q   S  S  Q    Q    Q     W
|------19--19--17-15-14---17---22--|-26----|
|--22------------------------------|-22----|
|------------------------------23--|-------|
|----------------------------------|-------|
|----------------------------------|-------|
|----------------------------------|-------|
|
|  +W                     +H          W
|----------------------------------|-------|
|----------------------------------|-------|
|-(21)-------------------(21)------|-------|
|----------------------------------|-------|
|----------------------------------|-------|
|----------------------------------|-------|


 Guitar + Keyboard Intro
  Q=137
  F#5
 6/4
  Gtr II
   W                      +E   e  e  e
|--------------------------------------|
|--------------------------------------|
|--------------------------------------|
|--4----------------------(4)--------2-|
|--4----------------------(4)--2--5----|
|--2----------------------(2)----------|
|
| Gtr IV
|  E  E  E  E  E  E  E  E  E   E  E  E
|-17----16----19-17----16-----------19-|
|-----------------------------17-19----|
|----18----18-------18----18-----------|
|--------------------------------------|
|--------------------------------------|
|--------------------------------------|


  F#5                                    F#5
   W                      +E   e  e  e    E  E  Q     W
|--------------------------------------|--------------------------------------|
|--------------------------------------|--------------------------------------|
|--------------------------------------|--------------------------------------|
|--4----------------------(4)--------2-|--4--4--------------------------------|
|--4----------------------(4)--2--5----|--4--4--------------------------------|
|--2----------------------(2)----------|--2--2--------------------------------|
|
|  E  E  E  E  E  E  E  E  E   E  E  E    E  E  E  E  E  E  E  E  E  E  E  E
|-17----16----19-17----16-----------19-|-17----16----19-17----16----------19--|
|-----------------------------17-19----|----------------------------17-19-----|
|----18----18-------18----18-----------|----18----18-------18----18-----------|
|--------------------------------------|--------------------------------------|
|--------------------------------------|--------------------------------------|
|--------------------------------------|--------------------------------------|


        F#5                                 F#5
                                                PM|     PM|      PM|
   Q     H.                +E   e  e  e      E  S S  E  E  E  E  S S  Q     e  e  e
|---------------------------------------||------------------------------------------|
|---------------------------------------||o-----------------------------------------|
|---------------------------------------||------------------------------------------|
|--------4-----------------(4)--------2-||----------------------------------------2-|
|--------4-----------------(4)--2--5----||o--4-------4-----2--4-------4-----2--5----|
|-14S====2-----------------(2)----------||---2--2-2--2--5-----2--2-2--2-------------|
|
|  E  E  E   E  E  E  E  E  E   E  E  E      E  E    E  E  E  E  E    E  E  E  E  E
|-17----16-----19-17----16-----------19-||--17------16----19-17------16----------19-|
|------------------------------17-19----||o--------------------------------17-19----|
|----18-----18-------18----18-----------||-----18------18-------18------18----------|
|---------------------------------------||------------------------------------------|
|---------------------------------------||o-----------------------------------------|
|---------------------------------------||------------------------------------------|
|
| Gtr VI
|  E  E  E   E  E  E  E  E  H                W                           H
|---------------0-----------------------||------------------------------------------|
|------------0-----0--------------------||o-----------------------------------------|
|-------18-----------18----18-----------||------------------------------------------|
|----16-----------------16--------------||------------------------------------------|
|---------------------------------------||o-----------------------------------------|
|-14------------------------------------||------------------------------------------|


      PM|     PM|      PM|        PM----------|
   E  S S  E  E  E  E  S S  Q     S S  S S  S S
|------------------------------------------------||
|-----------------------------------------------o||
|------------------------------------------------||
|-------------------------------------------2-2--||
|--4-------4-----2--4-------4-----2-2--5-5------o||
|--2--2-2--2--5-----2--2-2--2--------------------||
|
|  E  E    E  E  E  E  E    E  E  E    E    E
|-17------16----19-17------16--------------19----||
|--------------------------------17---19--------o||
|----18------18-------18------18-----------------||
|------------------------------------------------||
|-----------------------------------------------o||
|------------------------------------------------||
|
|  W                           H
|------------------------------------------------||
|-----------------------------------------------o||
|------------------------------------------------||
|------------------------------------------------||
|-----------------------------------------------o||
|------------------------------------------------||


  F5                  Db5                  D5                Db5       F#5
   H        +Q         H.                   H.                Q.        Q.
|----------------------------------------|---------------------------------------|
|----------------------------------------|---------------------------------------|
|----------------------6-----------------|--7-----------------6------------------|
|--3--------(3)--------6-----------------|--7-----------------6---------4--------|
|--3--------(3)--------4-----------------|--5-----------------4---------4--------|
|--1--------(1)--------------------------|------------------------------2--------|
|
|  Q   E  Q      S  S  E   E  E  E  E  E    Q    E  Q   S  S  E   E  E  E   E  E
|---------------20-18-16--15-13-15-16-20-|-18---16-18--20-18-16--15-13-11--13-15-|
|-18--16-18------------------------------|---------------------------------------|
|----------------------------------------|---------------------------------------|
|----------------------------------------|---------------------------------------|
|----------------------------------------|---------------------------------------|
|----------------------------------------|---------------------------------------|


  F5                  Db5
   H        +Q         H.
|-----------------------------------------|
|-----------------------------------------|
|----------------------6------------------|
|--3--------(3)--------6------------------|
|--3--------(3)--------4------------------|
|--1--------(1)---------------------------|
|
|  Q   E  Q      S  S  E   E  E  E  E  E
|-13--11-13-----20-18-16--15-13-15-16-20--|
|-----------------------------------------|
|-----------------------------------------|
|-----------------------------------------|
|-----------------------------------------|
|-----------------------------------------|


  D5                Db5       F#5
   H.                Q.        Q.
|---------------------------------------|
|---------------------------------------|
|--7-----------------6------------------|
|--7-----------------6---------4--------|
|--5-----------------4---------4--------|
|------------------------------2--------|
|
|  Q    E  Q   S  S  E   E  E  E   E  E
|-18---16-18--20-18-16--15-13-11--13-15-|
|---------------------------------------|
|---------------------------------------|
|---------------------------------------|
|---------------------------------------|
|---------------------------------------|


    Ab5
    q    e e e  q      e e  e  q      e  e e q    e   e  e e E E  E
||----------------------------------|---------------------------------||
||o---------------------------------|--------------------------------o||
||----------------------------------|---------------------------------||
||----------------------------------|---------------------------------||
||o-6------2-------------2----------|----2------------2-----------1--o||
||--4----4---2--4------4----2--4----|-4----2-4----4------2-4-2-4------||
|
|   E E  E E E  S S E  E E  E  E  E   E  E E E E  S S E  E E E E  E
||-------------11-9-7------------11-|-9----7-9---11-9-7---------------||
||o-9------9----------11-9-11-12----|----------6--------11-9-7-9-11--o||
||----8-11---8----------------------|---10----------------------------||
||----------------------------------|---------------------------------||
||o---------------------------------|--------------------------------o||
||----------------------------------|---------------------------------||


  E5        F#5       E5        F#5       G5        A5
 9/8
  H     +E  H         H     +E  H         H     +E   H
|-------------------|-------------------|---------------------|
|-------------------|-------------------|---------------------|
|-------------------|-------------------|---------------------|
|-2-----(2)-4-------|-2-----(2)-4-------|-5-----(5)--7--------|
|-2-----(2)-4-------|-2-----(2)-4-------|-5-----(5)--7--------|
|-0-----(0)-2-------|-0-----(0)-2-------|-3-----(3)--5--------|
|
| Q  Q   E  E E E E   Q  Q   E  E E E E   Q  Q   E   E E  E E
|-4--6---7--7-6-----|-4--6---7--7-6-----|-7--9--10--10-9------|
|-5--5------7---7---|-5--5------7---7---|-8--8------10---10---|
|-----------------6-|-----------------6-|-------------------9-|
|-------------------|-------------------|---------------------|
|-------------------|-------------------|---------------------|
|-------------------|-------------------|---------------------|


  G5        Db5/Ab
 13/8                                4/4
  H     +E   W                        +W
|-----------------------------------|--------------------------|
|-----------------------------------|--------------------------|
|------------6----------------------|-(6)----------------------|
|-5-----(5)--6----------------------|-(6)----------------------|
|-5-----(5)--4----------------------|-(4)----------------------|
|-3-----(3)--4----------------------|-(4)----------------------|
|
| Q  Q   E   E  E  E  E  E  E  E  E    E   E  E  E  E  E  E  E
|-7--9--10--14-13-------14-13-------|-14--13-------14-13-------|
|-8--8------------14----------14----|--------14----------14----|
|--------------------13----------13-|-----------13----------13-|
|-----------------------------------|--------------------------|
|-----------------------------------|--------------------------|
|-----------------------------------|--------------------------|


  F#5               E5/B    D5        A5
 6/4
                                              PM--------|
  W        +H       H.      H.        H.      e e e e e e
|-----------------|-0---------------|----------------------|
|-----------------|-0-------3-------|----------------------|
|-----------------|-4-------2-------|-2--------------------|
|-4--------(4)----|---------0-------|-2--------------------|
|-4--------(4)----|-----------------|-0-------0-0-0-0-0-0--|
|-2--------(2)----|-----------------|----------------------|


   Verse
    B5
   7/4
      PM------------------------------|
    E S S E S S E S S E S S E S S E S S S S S S
||----------------------------------------------|
||o---------------------------------------------|
||----------------------------------------------|
||--4-------------------------------------------|
||o-2-2-2-2-2-2-2-2-2-2-2-2-2-2-2-2-2-2-2-4h5p4-|
||----------------------------------------------|


                      E5 F#5G  A
    PM------------|         ~
  E S S E S S E S S E Q  Q  Q  E
|--------------------------------|
|--------------------------------|
|--------------------------------|
|-4-------------------2--4-------|
|-2-2-2-2-2-2-2-2-2-2-2--4-----0-|
|---------------------0--2--3----|


  B5
    PM------------------------------|
  E S S E S S E S S E S S E S S E S S S S S S
|---------------------------------------------|
|---------------------------------------------|
|---------------------------------------------|
|-4-------------------------------------------|
|-2-2-2-2-2-2-2-2-2-2-2-2-2-2-2-2-2-2-2-4h5p4-|
|---------------------------------------------|


 1.
  B5
 8/4
    PM------------------|
  E S S E S S E S S E S S S S E. S S S S S S S S S S S
|---------------------------------------------------------||
|--------------------------------------------------------o||
|---------------------------------------------------------||
|-4-----------------------2-4h5--------2------------------||
|-2-2-2-2-2-2-2-2-2-2-2-2--------2-4h5---5p4p2-5-4-2-1---o||
|---------------------------------------------------------||


  2.
  B5                          E5   F#5    G5       A5     G5       A5
                                         9/8
    PM------|
  E S S E S S S S S S S S S S H    H      H    +E  H      H    +E  H
|---------------------------------------|---------------|---------------|
|---------------------------------------|---------------|---------------|
|---------------------------------------|---------------|---------------|
|-4-----------4-2-------------2----4----|-5----(5)-7----|-5----(5)-7----|
|-2-2-2-2-2-2-----5-4-2-------2----4----|-5----(5)-7----|-5----(5)-7----|
|-----------------------5-3-2-0----2----|-3----(3)-5----|-3----(3)-5----|


  Bb5      C5      Bb5      C5
                  13/8                 4/4
  H    +E   H      H    +E   W           +W
|----------------|--------------------|---------|
|----------------|--------------------|---------|
|----------------|--------------------|---------|
|-8----(8)-10----|-8----(8)-10--------|-(10)----|
|-8----(8)-10----|-8----(8)-10--------|-(10)----|
|-6----(6)--8----|-6----(6)--8--------|--(8)----|


 Chorus
  $
  F5              Ab5             Bb5
 6/4
  Gtr II
   H.             H.               W                 +H
|-------------------------------|---------------------------------|
|-------------------------------|---------------------------------|
|-------------------------------|---------------------------------|
|--3--------------6-------------|--8-----------------(8)----------|
|--3--------------6-------------|--8-----------------(8)----------|
|--1--------------4-------------|--6-----------------(6)----------|
|
| Gtr I
|  E   E  E E E E E  E E E  E E    E E E E E E  E  E  E   E  E  E
|---------------6-8-------------|----------6---11-----------------|
|-----------8-9------9---9----9-|-11-8---8---8----11--------------|
|-10-----10------------8--------|------8-------------12-----------|
|-----10-------------------10---|------------------------13----13-|
|-------------------------------|---------------------------13----|
|-------------------------------|---------------------------------|


  Bb5                Ab5
   H.                 H.
|----------------------------------------|
|----------------------------------------|
|--3-------------------------------------|
|--3------------------6------------------|
|--1------------------6------------------|
|---------------------4------------------|
|
|  E   E  E  E  E  E  E   E  E  E  E  E
|----------------------------------------|
|-14-----------13-14-13-----------13-14--|
|-----15----15-----------13----13--------|
|--------15-----------------13-----------|
|----------------------------------------|
|----------------------------------------|


  F#5
   W                      +H
|--------------------------------------|
|--------------------------------------|
|--------------------------------------|
|--4----------------------(4)----------|
|--4----------------------(4)----------|
|--2----------------------(2)----------|
|
|  E  E  E  E  E  E  E  E  E   E  E  E
|-------------------18-----------------|
|----------------------19--------------|
|-15----------15----------18-----------|
|----16----16----16-----------20----20-|
|-------16-----------------------21----|
|--------------------------------------|


  F5                 Ab5                  Bb5
   H.                 H.                   W                      +H
|---------------------------------------|--------------------------------------|
|---------------------------------------|--------------------------------------|
|---------------------------------------|--------------------------------------|
|--3------------------6-----------------|--8----------------------(8)----------|
|--3------------------6-----------------|--8----------------------(8)----------|
|--1------------------4-----------------|--6----------------------(6)----------|
|
|  E   E  E  E  E  E  E   E  E  E  E  E    E  E  E  E  E  E  E  E  E   E  E  E
|---------------------------------------|-------------------11-----------------|
|---------------------------------------|-------------11-------11--------------|
|-----------------15-17--------------13-|-15-12----12----12-------12-----------|
|-----------17-18--------18----18-------|-------13--------------------13----13-|
|-20-----20-----------------18----15----|--------------------------------13----|
|-----20--------------------------------|--------------------------------------|


                              To Coda
  Db5             C5                   F5
                                      7/4
   H.              H.                   W                      +H.
|------------------------------------|--------------------------------------------|
|------------------------------------|--------------------------------------------|
|------------------------------------|--------------------------------------------|
|--6---------------5-----------------|--3----------------------(3)----------------|
|--4---------------3-----------------|--3----------------------(3)----------------|
|------------------------------------|--1----------------------(1)----------------|
|
|                                    Gtr IV
|  E   E E E  E E  E   E  E  E  E  E    E  E  E  E  E  E  E  E  E   E  E  E  E  E
|----------9-13-9-15--11----------11-|-20----19----17-------20-----19----17-------|
|--------9---------------13----13----|----18----20----18-------18-----20----18----|
|-13--10--------------------12-------|-------------------17--------------------17-|
|------------------------------------|--------------------------------------------|
|------------------------------------|--------------------------------------------|
|------------------------------------|--------------------------------------------|


   W                       H.
|----------------------------------------------|
|----------------------------------------------|
|----------------------------------------------|
|----------------------------------------------|
|----------------------------------------------|
|----------------------------------------------|
|
|  E  E  E  E  E  E  E  E  E   E  E  E  E  E
|-20----19----17-------20-----19----17---------|
|----18----20----18-------18-----20----18------|
|-------------------17--------------------17---|
|----------------------------------------------|
|----------------------------------------------|
|----------------------------------------------|


   Verse 2
    Bb5
      PM------------------------------|
    E S S E S S E S S E S S E S S E S S S S S S
||----------------------------------------------|
||o---------------------------------------------|
||----------------------------------------------|
||--3-------------------------------------------|
||o-1-1-1-1-1-1-1-1-1-1-1-1-1-1-1-1-1-1-1-3h4p3-|
||----------------------------------------------|


  Bb5                    F5 F# Ab
    PM------------|         ~
  E S S E S S E S S E Q  Q  Q  E
|----------------------------------|
|----------------------------------|
|----------------------------------|
|-3----------------------3---------|
|-1-1-1-1-1-1-1-1-1-1----3---------|
|------------------------1--2--4---|


  Bb5
    PM------------------------------|
  E S S E S S E S S E S S E S S E S S S S S S
|---------------------------------------------|
|---------------------------------------------|
|---------------------------------------------|
|-3-------------------------------------------|
|-1-1-1-1-1-1-1-1-1-1-1-1-1-1-1-1-1-1-1-3h4p3-|
|---------------------------------------------|


 1.
  Bb5
 8/4
    PM------------------|
  E S S E S S E S S E S S S S E. S S S S S S S S S S S
|---------------------------------------------------------||
|--------------------------------------------------------o||
|---------------------------------------------------------||
|-3-----------------------1-3h4--------1------------------||
|-1-1-1-1-1-1-1-1-1-1-1-1--------1-3h4---4p3p1-4-3-1-0---o||
|---------------------------------------------------------||


  2.
  Bb5                         F#5  Ab5
    PM------|
  E S S E S S S S S S S S S S H    H
|---------------------------------------|
|---------------------------------------|
|---------------------------------------|
|-3-----------3-1-------------4----6----|
|-1-1-1-1-1-1-----4-3-1-------4----6----|
|-----------------------4-2-1-2----4----|
|
| Gtr IV
| W                           W
|---------------------------------------|
|---------------------------------------|
|---------------------------------------|
|---------------------------------------|
|---------------------------------------|
|---------------------------------------|


 Pre Chorus
  Eb5Db5Eb5      Eb5Db5Eb5
 5/4                             5/8
   E  E  E  Q     E  E  E  Q       E  E  E  E  E
|-------------------------------|--4--------------|
|-------------------------------|-----4-----------|
|-------------------------------|--------6--------|
|--8--6--8--------8--6--8-------|-----------6-----|
|--6--4--6--------6--4--6-------|--------------4--|
|-------------------------------|-----------------|
|
|  E  E  E  E  E  E  E  E  E  E    E  E  E  E  E
|-14----13----16-14----13----16-|-14----13----16--|
|-------------------------------|-----------------|
|----15----15-------15----15----|----15----15-----|
|-------------------------------|-----------------|
|-------------------------------|-----------------|
|-------------------------------|-----------------|


  Eb5Db5Eb5      Eb5Db5Eb5
 5/4                             5/8
   E  E  E  Q     E  E  E  Q       E  E  E  E  E
|-------------------------------|--4-------------|
|-------------------------------|-----4----------|
|-------------------------------|--------6-------|
|--8--6--8--------8--6--8-------|-----------6----|
|--6--4--6--------6--4--6-------|--------------4-|
|-------------------------------|----------------|
|
|  E  E  E  E  E  E  E  E  E  E    E  E  E  E  E
|-14----13----16-14----13----16-|-14----13----16-|
|-------------------------------|----------------|
|----15----15-------15----15----|----15----15----|
|-------------------------------|----------------|
|-------------------------------|----------------|
|-------------------------------|----------------|


  Eb5Db5Eb5      Eb5Db5Eb5
 5/4                             5/8
   E  E  E  Q     E  E  E  Q       E  E  E  E  E
|-------------------------------|--4-------------|
|-------------------------------|-----4----------|
|-------------------------------|--------6-------|
|--8--6--8--------8--6--8-------|-----------6----|
|--6--4--6--------6--4--6-------|--------------4-|
|-------------------------------|----------------|
|
|  E  E  E  E  E  E  E  E  E  E    E  E  E  E  E
|-14----13----16-14----13----16-|-14----13----16-|
|-------------------------------|----------------|
|----15----15-------15----15----|----15----15----|
|-------------------------------|----------------|
|-------------------------------|----------------|
|-------------------------------|----------------|


  Eb5Db5Eb5      Eb5Db5Eb5        Db5
 5/4                             4/4
   E  E  E  Q     E  E  E  Q       W
|-------------------------------|-------------------------|
|-------------------------------|-------------------------|
|-------------------------------|--6----------------------|
|--8--6--8--------8--6--8-------|--6----------------------|
|--6--4--6--------6--4--6-------|--4----------------------|
|-------------------------------|-------------------------|
|
|  E  E  E  E  E  E  E  E  E  E    E  E  E  E  E  E  E  E
|-14----13----16-14----13----16-|-13----------13----------|
|-------------------------------|-------14----------14----|
|----15----15-------15----15----|----13----13----13----13-|
|-------------------------------|-------------------------|
|-------------------------------|-------------------------|
|-------------------------------|-------------------------|


                                     D.S. al Coda
  C5                        F5
   W                         W
|-------------------------|-------------------------|
|-------------------------|-------------------------|
|--5----------------------|-------------------------|
|--5----------------------|--3----------------------|
|--3----------------------|--3----------------------|
|-------------------------|--1----------------------|
|
|  E  E  E  E  E  E  E  E    E  E  E  E  E  E  E  E
|-13----------13----------|-12----------12----------|
|-------13----------13----|-------13----------13----|
|----12----12----12----12-|----12----12----12----12-|
|-------------------------|-------------------------|
|-------------------------|-------------------------|
|-------------------------|-------------------------|


  &
  F
 6/4
  W        +H
|-----------------|
|-----------------|
|-----------------|
|-----------------|
|-8--------(8)----|
|-----------------|

[ Tab from: http://www.guitaretab.com/s/symphony-x/113528.html ]
   Interlude
    N.C.
    Gtr I
     E  E  E  E  E  E  E  E  E  E  E E   E  E  E E  E  E  E  E  E  E  E  E
||--13-------13-15-16-15-11----11------|-9-------9-11-13-11-------15-11----|
||o----13-------------------11----11---|------11------------11----------11-|
||--------10-------------------------8-|---10------------10----12----------|
||-------------------------------------|--------------------------13-------|
||o------------------------------------|-----------------------------------|
||--13----------------11---------------|-8---------------------------------|


   E  E  E  E  E  E  E  E  E  E  E  E    E  E  E  E  E  E  E  E  E  E  E  E
|-13-------13-15-16-18-------15-------|-------------15-16---------------------||
|----13----------------16-------------|-16-------16-------18-------18--------o||
|-------10----------------15----15----|-------17----------------18----18------||
|----------------------------------13-|----17----------------18----------18---||
|-------------------------------------|-15----------------16-----------------o||
|-13----------------11----------------|---------------------------------------||


    N.C.
    Gtr II
    Q.   E E E Q.   Q.     Q.   E E E Q.   Q  S S
||-----------------------|------------------------|
||o----------------------|------------------------|
||-----------------------|------------------------|
||--6----6-8-9-8---------|----------6------8--9p8-|
||o-----------------9----|-7----7-9---9-----------|
||-----------------------|------------------------|


  H    E E  Q.   Q.     Q.   E E E Q.   +Q.
|---------------------|------------------------||
|---------------------|-----------------------o||
|---------------------|------------------------||
|-6----8h9-11----8----|------6-8h9-6----(6)----||
|---------------------|-9---------------------o||
|---------------------|------------------------||


 Pre Solo
 7/4
  Gtr VI
  W        H.           E  E  E  E  E  E  E  E  E  E  E E  E  E
|------------------||---------------0-------------------0--------|
|------------------||o-------15----------15-------15---------15--|
|------------------||-----14----------14-------14---------14-----|
|------------------||--------------------------------------------|
|------------------||o-12-------12----------12-------12----------|
|------------------||--------------------------------------------|
|
| Gtr I
| W        H.           Q     E  E  E  E  E  E  E  E  H
|------------------||---8----10-12----17----15-------------------|
|------------------||o-10----12-13-10-17----15----15-17----------|
|------------------||--------------------14----14-16-17----------|
|------------------||--------------------------------------------|
|------------------||o-------------------------------------------|
|------------------||--------------------------------------------|


   E  E  E  E E  E  E  E  E   E  E E  E  E
|-------------0--------------------0-------|
|-------15---------15--------15---------15-|
|----14---------14-------14----------14----|
|------------------------------------------|
|-12-------12---------12--------12---------|
|------------------------------------------|
|
|  W                      H.
|------------------------------------------|
|------------------------------------------|
|------------------------------------------|
|------------------------------------------|
|------------------------------------------|
|------------------------------------------|


   E  E  E  E  E  E  E  E  E  E  E E  E  E
|--------------0-------------------0-------|
|-------15----------15-------15---------15-|
|----14----------14-------14---------14----|
|------------------------------------------|
|-12-------12----------12-------12---------|
|------------------------------------------|
|
|  Q     E  E  E  E  E  E  E  E  Q    E  E
|--8----10-12----17----15------------22-24-|
|-10----12-13-10-17----15----15-17---24-25-|
|-------------------14----14-16-17---------|
|------------------------------------------|
|------------------------------------------|
|------------------------------------------|


 9/4
   E  E  E  E  E  E  E  E  E  E  E  E  E  E  E  E  E  E
|-----0----------10h12p10----10--------------------------||
|----------15-------------13----13p12h13p12-10-12-10----o||
|-------14-------------------------------------------12--||
|--------------------------------------------------------||
|-12----------12----------------------------------------o||
|--------------------------------------------------------||
|
|  E  E  E  E  E  E  E  E  E  E  E  E  E  E  E  E  E  E
|----29----27----22-24-22-20-22-20-19-20-19-17-19-17-15--||
|-22-29-22-27-22-24-------------------------------------o||
|--------------------------------------------------------||
|--------------------------------------------------------||
|-------------------------------------------------------o||
|--------------------------------------------------------||


  C5         D5         F5/C          G5/D
 6/4
  Gtrs I, VI
  E S  S S S E S S S  S  S S S  S S S  S  S S S S S
|------------------------7-8-7----------------------|
|------------7---7-8-10--------10-8-6--8-10-6-------|
|-9-7----------9------------------------------9-7-9-|
|-----10-9-7----------------------------------------|
|---------------------------------------------------|
|---------------------------------------------------|
|
| Gtr II
| E Q        E Q         E   Q         E    Q
|---------------------------------------------------|
|---------------------------------------------------|
|-5----------7--------------------------------------|
|-5----------7----------10------------12------------|
|-3----------5-----------8------------10------------|
|------------------------8------------10------------|


  C5          D5          F5/C           G5/D           Bb5/F           C5/G
 9/4
  E  S  S S S E  S S S  S  S  S S  S S S  S   S S S S S  S   S S S  S S  S  S  S S S  S
|--------------------------7--8-7-------------------------------------------------------|
|-------------7----7-8-10---------10-8-6--8--10-8-6-------------------------------------|
|-9--7-----------9----------------------------------9-7--9--10-9-7----------7-----------|
|------10-9-7------------------------------------------------------10-8-10----10-8-7----|
|------------------------------------------------------------------------------------10-|
|---------------------------------------------------------------------------------------|
|
| Q.          Q.           Q.             Q.             Q.              Q.
|---------------------------------------------------------------------------------------|
|---------------------------------------------------------------------------------------|
|-5-----------7-----------------------------------------10--------------12--------------|
|-5-----------7-----------10-------------12--------------8--------------10--------------|
|-3-----------5------------8-------------10--------------8--------------10--------------|
|--------------------------8-------------10---------------------------------------------|


    F#5  B5           A5   D5
   7/8                             4/4
    Gtr II
    H    Q.    4x     H    Q.    4x +W
||-------------||-||-------------||--------|
||o-----------o||-||o-----------o||--------|
||-------4-----||-||-------7-----||-(7)----|
||--4----4-----||-||--7----7-----||-(7)----|
||o-4----2----o||-||o-7----5----o||-(5)----|
||--2----------||-||--5----------||--------|


 Solo 1
  N.C.
  Gtr VI
  Q.    S  S  S  S  S  S  S  S  S  S
|------18-20-21-20-18-16-------------|
|------------------------------------|
|------------------------18-17-15----|
|---------------------------------18-|
|------------------------------------|
|------------------------------------|


   q   q   q   E  E    +E   E  E  E  E  E  E  E
|-------------------|----------------------------|
|-----14--13--------|------------11-------14-16--|
|-15----------13-15-|-(15)----13-------13--------|
|-------------------|------15-------15-----------|
|-------------------|----------------------------|
|-------------------|----------------------------|


  Gtr VI
   E  E  E  E  E  S  S  E  S  S    +S  S E Q   H
|----------16-------------------|--------------------------|
|----14-------14-16-14-13-11----|--------------------------|
|-15----10-------------------13-|-(13)---------------------|
|-------------------------------|--------------------------|
|-------------------------------|--------------------------|
|-------------------------------|--------------------------|
|
| Gtr III
|  W                                Q      e Q    S S e  e
|-------------------------------|--------------------------|
|-------------------------------|--------------------------|
|-------------------------------|----------------10-8-6----|
|-------------------------------|---8------6-8----------10-|
|-------------------------------|--------------------------|
|-------------------------------|--------------------------|


  W                      W
|----------------------|-----------------------|
|----------------------|-----------------------|
|----------------------|-----------------------|
|----------------------|-----------------------|
|----------------------|-----------------------|
|----------------------|-----------------------|
|
| e  e Q  e E. S  S  S   S  S  S S  Q.    Q.
|----------------------|-----------------------|
|----------------------|---------9-11----13----|
|-6-10-8--6-8----------|-8-10h11---------------|
|--------------8-10h11-|-----------------------|
|----------------------|-----------------------|
|----------------------|-----------------------|


  Gtr III
   ~~~~~~~~~~~~~~~~~~~~            ~~
   Q   Q   Q   Q     Q   E  Q   E  Q
|-----------------|-17--15-17--18-15--|
|-14--16--17--19--|-------------------|
|-----------------|-------------------|
|-----------------|-------------------|
|-----------------|-------------------|
|-----------------|-------------------|


   +E   S  S  S  S  S  S  S  S  S  S  S  S  S S
|-(15)-15-15-15-11-------------------------------|
|------------------10-10-10-11-------------------|
|------------------------------15-15-15-12-12p8--|
|------------------------------------------------|
|------------------------------------------------|
|------------------------------------------------|


                       T      T      T  T      T            T      T
                 |-----3------| |-----3-----|  |----3----|  |----3-----|
  Q  E Q  E Q    S  S  S S S  S S S  S  S S S  S S S S S S  S S S  S S S
|--------------|---------------------------------------6h9-11-9p6---------|
|--------------|----------------------------------------------------------|
|--------------|---------6h8-12-8p6-14-12-8p6-12-8p6h8------------12-8p6--|
|-7--5-7--8-5--|----------------------------------------------------------|
|--------------|-6h10-13--------------------------------------------------|
|--------------|----------------------------------------------------------|


 Pre Solo 2
  Eb5                                                                Eb5
 5/4
  Gtr II
     PM   PM   PM      PM   PM   PM      PM   PM   PM      PM   PM   PM
  Q  e Q  e Q  Q    Q  e Q  e Q  Q    Q  e Q  e Q  Q    Q  e Q  e Q  Q
|-----------------|-----------------|-----------------|------------------|
|-----------------|-----------------|-----------------|------------------|
|-----------------|-----------------|-----------------|--------------8---|
|-8----8----8-----|-8----8----8-----|-8----8----8-----|-8----8----8--8---|
|-6--6-6--6-6--6--|-6--6-6--6-6--6--|-6--6-6--6-6--6--|-6--6-6--6-6--6---|
|-----------------|-----------------|-----------------|------------------|


 Solo 2
  D
 7/4
  Gtr III
   E  Q      S  S  Q           +E   S  S  E  E    S  S  S  Q           +S
|--------------------------------------------------------------------------|
|----10--------------------------------------------------------------------|
|----10----------------------------------10------------10------------------|
|-----------12p10-12b12.5r====(12)----------12---10-12----12b12.5r====(12)-|
|----------------------------------10h12-----------------------------------|
|-10-----------------------------------------------------------------------|
|
| Gtr II
|  PM-----------------------------------------------------------------------
|  E  S S E  S  S  E      S S   E   S  S  E  S S  E     S  S      E S   S
|--------------------------------------------------------------------------|
|--------------------------------------------------------------------------|
|--------------------------------------------------------------------------|
|--------------------------------------------------------------------------|
|--5--5-5-5--5--5--5------5-5---5---5--5--5--5-5--5-----5--5------5-5---5--|
|--------------------------------------------------------------------------|


                                            G5          A           Bb          C
   S  S  S  S  S  S  S  S  S  S  S  S  S  S  S  S  S  S  S  S  S  S  S  S  S  S  S  S
|----------------------------------------------------10-12-13-12-13----13----13-10-13-|
|----------------------------------------------10h13----------------13----11----------|
|----10h12-10h12-10h13-10h13-10h14-10----10h12----------------------------------------|
|-12----------------------------------12----------------------------------------------|
|-------------------------------------------------------------------------------------|
|-------------------------------------------------------------------------------------|
|
|-------------------------------------|
|  E     S  S  E     S  S  E     S  S  e     Q           Q           Q           E
|-------------------------------------------------------------------------------------|
|-------------------------------------------------------------------------------------|
|-------------------------------------------------------------------------------------|
|--------------------------------------------5----------------------------------------|
|--5-----5--5--5-----5--5--5-----5--5--5-----5----------------------------------------|
|--------------------------------------------3-----------5-----------6-----------8----|


  D
   S  S  S  S  S  S  S  S  S  S  S  S  S  S  S  S  S  S  S  S  S  S  S  S  S  S  S  S
|-12-13----13----13-10-13p12----12-10----10----10----10----10----10----10----10----10-|
|-------13----11-------------13-------13----12----------------13----12----------------|
|-------------------------------------------------12----14----------------12----14----|
|-------------------------------------------------------------------------------------|
|-------------------------------------------------------------------------------------|
|-------------------------------------------------------------------------------------|
|
|  PM------------------------------------------------------------------------------|
|  E     S  S  E     S  S  E     S  S  E     S  S  E     S  S  E     S  S  E     S  S
|-------------------------------------------------------------------------------------|
|-------------------------------------------------------------------------------------|
|-------------------------------------------------------------------------------------|
|-------------------------------------------------------------------------------------|
|--5-----5--5--5-----5--5--5-----5--5--5-----5--5--5-----5--5--5-----5--5--5-----5--5-|
|-------------------------------------------------------------------------------------|


  D
 8/4
                                                                ~~~~~~~~~~~~~~~~~
   S  S  S  S  S  S  S  S  S  S  S  S  S  S  S  S  S  S  S   S  Q.            Q.
|----10----------------------------------10h15-10h13-10-----10------------------------------|
|-13----12h13-12p10-12p10-------------10----------------13-----15---------------------------|
|-------------------------12p10-12p10----------------------------------------14-------------|
|-------------------------------------------------------------------------------------------|
|-------------------------------------------------------------------------------------------|
|-------------------------------------------------------------------------------------------|
|
|  PM------------------------------------------|
|  E     S  S  E     S  S  E     S  S  E     S  S  S  S  E.        S S S S S  S  S S S S S
|-------------------------------------------------------------------------------------------|
|-------------------------------------------------------------------------------------------|
|-------------------------------------------------------------------------------------------|
|--------------------------------------------------5--7--8---------------5------------------|
|--5-----5--5--5-----5--5--5-----5--5--5-----5--5------------------5-7-8---8--7--5-8-7-5-4--|
|-------------------------------------------------------------------------------------------|


  D
 7/4
      ~~~~~~~~~~~~~~~~~~~~~~~~~~~          ~~~
   E  Q.          Q      Q     Q      S S  Q.
|-----------------------------------------------------|
|-----------------------------------------------------|
|-12---------------------------9-----10p9-------------|
|----12-----------------10----------------12----------|
|----------------12-----------------------------------|
|-----------------------------------------------------|
|
|  PM--------------------------------------------------
|  E  S  S E S S  E S S  E S S E S S  E    S  S E S S
|-----------------------------------------------------|
|-----------------------------------------------------|
|-----------------------------------------------------|
|-----------------------------------------------------|
|--5--5--5-5-5-5--5-5-5--5-5-5-5-5-5--5----5--5-5-5-5-|
|-----------------------------------------------------|


                           G5  A        Bb C
   E  E    E  Q      Q      Q   S  S  H
|---------10-12-----13-----15--13p12---------|
|----10------------------------------15------|
|-10-----------------------------------------|
|--------------------------------------------|
|--------------------------------------------|
|--------------------------------------------|
|
|------------------------|
|  E  S S  E  S S E  S S e  Q   Q       Q  E
|--------------------------------------------|
|--------------------------------------------|
|--------------------------------------------|
|---------------------------5----------------|
|--5--5-5--5--5-5-5--5-5-5--5----------------|
|---------------------------3---5-------6--8-|


  D
   E  S  S  S  S  S  S  S  S  S  S  S  S  S  S  S  S  S  S  S  S  S  S  S  S  S S
|-17-15-17-13p12----15p12---------------------------------------------------------|
|----------------13-------13------------------------------------------------------|
|----------------------------12----12-10----10-13p12h13p12h13---------------------|
|-------------------------------14-------12-------------------12p10----12----12---|
|-------------------------------------------------------------------13----10----8-|
|---------------------------------------------------------------------------------|
|
|  PM------------------------------------------------------------------------------
|  E  S  S  E     S  S  E     S  S  E     S  S  E     S  S  E     S  S  E     S S
|---------------------------------------------------------------------------------|
|---------------------------------------------------------------------------------|
|---------------------------------------------------------------------------------|
|---------------------------------------------------------------------------------|
|--5--5--5--5-----5--5--5-----5--5--5-----5--5--5-----5--5--5-----5--5--5-----5-5-|
|---------------------------------------------------------------------------------|


 4/4
   S  S  S  S  S S  S  H            +S
|-----------------------------------------|
|-----------------------------------------|
|-----------------------------------------|
|-12----12----12---12---------------------|
|----11----10----8----10-----------(10)---|
|-----------------------------------------|
|
|----------------------------------|
|  E     S  S  E    S  S E S S E S   S
|-----------------------------------------|
|-----------------------------------------|
|-----------------------------------------|
|-----------------------------------------|
|--5-----5--5--5----5--5-5-5-5-5-5---5----|
|-----------------------------------------|


  G5                        A5
                  |--3--|           |--3--|     |--3--|     |--3--|
   H        Q.    S  S  S    Q   E  S  S  S  E  S  S  S  E  S  S  S
|----------17----18p17p15-|-17--21-17h21p17----12h17p12-------------|
|-20b21-------------------|-----------------17----------14-14h17p14-|
|-------------------------|-----------------------------------------|
|-------------------------|-----------------------------------------|
|-------------------------|-----------------------------------------|
|-------------------------|-----------------------------------------|
|
|  W                         W
|-------------------------|-----------------------------------------|
|-------------------------|-----------------------------------------|
|-------------------------|-----------------------------------------|
|--5----------------------|--7--------------------------------------|
|--5----------------------|--7--------------------------------------|
|--3----------------------|--5--------------------------------------|


  A
      |--3--|     |--3--|
   E  S  S  S  E  S  S  S  E  Q.
|------------------------------------|
|----------------------------18------|
|-11-11h14p11------------------------|
|-------------14-14h17p14------------|
|-------------------------12---------|
|------------------------------------|
|
|  PM------------------------------|
|  E  E        E  E        E  E  E E
|------------------------------------|
|------------------------------------|
|------------------------------------|
|------------------------------------|
|------------------------------------|
|--5--5--------5--5--------5--5--5-5-|


  F5               Db5               Ab5
 6/4
                                             |--3--|
   Q    E  E  E  E  H        Q        Q   E  S  S  S  Q    H     E  E
|------16-18-20p16-21-------23b24--|-20--18-18h20p18-16---18----16h18-|
|-18-------------------------------|----------------------------------|
|----------------------------------|----------------------------------|
|----------------------------------|----------------------------------|
|----------------------------------|----------------------------------|
|----------------------------------|----------------------------------|
|
|  H.               Q  +H             H              +W
|----------------------------------|----------------------------------|
|----------------------------------|----------------------------------|
|-------------------6--(6)---------|----------------------------------|
|--3----------------6--(6)---------|--6--------------(6)--------------|
|--3----------------4--(4)---------|--6--------------(6)--------------|
|--1-------------------------------|--4--------------(4)--------------|


                            Chorus
  F#5          F5            F#5         A5
   Q    Q   Q   H.            +H      Q   H.
|-20---18--20--21----------|-(21)----21--19----------|
|--------------------------|-------------------------|
|--------------------------|-------------------------|
|--------------------------|-------------------------|
|--------------------------|-------------------------|
|--------------------------|-------------------------|
|
|  H.           Q   +H         H.         Q   +H
|--------------------------|-------------------------|
|--------------------------|-------------------------|
|--------------------------|-------------------------|
|--4------------3---(3)----|---4----------7---(7)----|
|--4------------3---(3)----|---4----------7---(7)----|
|--2------------1---(1)----|---2----------5---(5)----|


  B5                B5      A5          G5
  Gtr II
  W        +H       H.      Q  +H       W        +H
|-----------------|-------------------|-----------------|
|-----------------|-------------------|-----------------|
|-----------------|-------------------|-----------------|
|-9--------(9)----|-9-------7--(7)----|-5--------(5)----|
|-9--------(9)----|-9-------7--(7)----|-5--------(5)----|
|-7--------(7)----|-7-------5--(5)----|-3--------(3)----|


  F#5     A5          B5
  H.      Q  +H       W        +H
|-------------------|-----------------|
|-------------------|-----------------|
|-------------------|-----------------|
|-4-------7--(7)----|-9--------(9)----|
|-4-------7--(7)----|-9--------(9)----|
|-2-------5--(5)----|-7--------(7)----|


  D5      Db5         D5      Db5         D5      B5
  H.      H    +Q     H.      H    +Q     H.      H    +Q
|-------------------|-------------------|-------------------|
|-------------------|-------------------|-------------------|
|-------------------|-------------------|-------------------|
|-7-------6----(6)--|-7-------6----(6)--|-7-------9----(9)--|
|-5-------4----(4)--|-5-------4----(4)--|-5-------9----(9)--|
|-------------------|-------------------|---------7----(7)--|


 Outro
  F#5
    PM|   PM|   PM|    PM--------|
  E S S E E E E S S Q  S S S S S S
|----------------------------------|
|----------------------------------|
|----------------------------------|
|------------------------------2-2-|
|-4-----4---2-4-----4--2-2-5-5-----|
|-2-2-2-2-5---2-2-2-2--------------|


  F#5                                F#5
    PM|   PM|   PM|    PM--------|     PM|   PM|   PM|    PM--------|
  E S S E E E E S S Q  S S S S S S   E S S E E E E S S Q  S S S S S S
|----------------------------------|----------------------------------|
|----------------------------------|----------------------------------|
|----------------------------------|----------------------------------|
|------------------------------2-2-|------------------------------2-2-|
|-4-----4---2-4-----4--2-2-5-5-----|-4-----4---2-4-----4--2-2-5-5-----|
|-2-2-2-2-5---2-2-2-2--------------|-2-2-2-2-5---2-2-2-2--------------|


  F#5
  Gtr II
    PM|   PM|   PM|
  E S S E E E E S S Q   e e e    W                    H
|-----------------------------|----------------------------|
|-----------------------------|----------------------------|
|-----------------------------|----------------------------|
|---------------------------2-|----------------------------|
|-4-----4---2-4-----4---2-5---|----------------------------|
|-2-2-2-2-5---2-2-2-2---------|----------------------------|
|
| Gtr VI
| W                   H          E  E  E E E E  E  E  H
|-----------------------------|------------0---------------|
|-----------------------------|----------0---0-------------|
|-----------------------------|-------18-------18----18----|
|-----------------------------|----16-------------16-------|
|-----------------------------|----------------------------|
|-----------------------------|-14-------------------------|


  F#5
 7/4
    PM  PM|   PM  PM
  E e E e e E e E e  E E E E E
|--------------------------------|
|--------------------------------|
|--------------------------------|
|--------------------------------|
|-4---4-0-2-4---4-0--2-----------|
|-2-0-2-----2-0-2------2-0-2-5---|
|
| W               H.
|--------------------------------|
|--------------------------------|
|--------------------------------|
|--------------------------------|
|--------------------------------|
|--------------------------------|


  B5            Db5  D5           E5     A5   Ab5
  Gtr II
  W        +Q   Q.   E   +H.      Q.     Q.   Q
|----------------------|-------------------------|
|----------------------|-------------------------|
|----------------------|-------------------------|
|-4--------(4)--6----7-|-(7)------2------7----6--|
|-2--------(2)--4----5-|-(5)------2------7----6--|
|----------------------|----------0------5----4--|
|
| Gtr IV
| W         H.            W           H.
|----------------------|-------------------------|
|----------------------|-------------------------|
|----------------------|-------------------------|
|----------------------|-------------------------|
|----------------------|-------------------------|
|----------------------|-------------------------|


  +W                       +H.
|----------------------------------------------|
|----------------------------------------------|
|----------------------------------------------|
|-(6)----------------------(6)-----------------|
|-(6)----------------------(6)-----------------|
|-(4)----------------------(4)-----------------|
|
|  E   E  E  E  E  E  E  E  E   E  E  E  E  E
|-23-----22----20-------23-----22----20--------|
|-----21----21----21-------21-----21----21-----|
|--------------------20--------------------20--|
|----------------------------------------------|
|----------------------------------------------|
|----------------------------------------------|


    Gtr IV
     E  E  E  E  E  E  E  E  E  E  E  E  E  E
||--23----22----20-------23----22----20-------|
||o----21----21----21-------21----21----21----|
||--------------------20-------------------20-|
||--------------------------------------------|
||o-------------------------------------------|
||--------------------------------------------|


   E  E  E  E  E  E  E  E  E  E  E  E  E  E    E  E  E  E  E  E  E  E  E  E  E  E  E  E
|-23----22----20-------23----22----20-------|-23----22----20-------23----22----20--------||
|----21----21----21-------21----21----21----|----21----21----21-------21----21----21----o||
|-------------------20-------------------20-|-------------------20-------------------20--||
|-------------------------------------------|--------------------------------------------||
|-------------------------------------------|-------------------------------------------o||
|-------------------------------------------|--------------------------------------------||


   E  E  E  E  E  E  E  E  E  E  E  E  E  E   W        H.
|-23----22----20-------23----22----20-------|----------------*|
|----21----21----21-------21----21----21----|----------------*|
|-------------------20-------------------20-|----------------*|
|-------------------------------------------|----------------*|
|-------------------------------------------|----------------*|
|-------------------------------------------|----------------*|



Duration Legend
---------------
W - whole; H - half; Q - quarter; E - 8th; S - 16th; T - 32nd; X - 64th; a - acciaccatura
+ - note tied to previous; . - note dotted; .. - note double dotted
Uncapitalized letters represent notes that are staccato (1/2 duration)
Irregular groupings are notated above the duration line
Duration letters will always appear directly above the note/fret number it represents the
duration for.  Duration letters with no fret number below them represent rests.  Multi-
bar rests are notated in the form Wxn, where n is the number of bars to rest for.  Low
melody durations appear below the staff

Tablature Legend
----------------
 h   - hammer-on
 p   - pull-off
 b   - bend
 pb  - pre-bend
 r   - bend release (if no number after the r, then release immediately)
 /\  - slide into or out of (from/to "nowhere")
 s   - legato slide
 S   - shift slide
 - natural harmonic
[n]  - artificial harmonic
n(n) - tapped harmonic
 ~   - vibrato
 tr  - trill
 T   - tap
 TP  - trem. picking
 PM  - palm muting
\n/  - tremolo bar dip; n = amount to dip
 \n  - tremolo bar down
 n/  - tremolo bar up
/n\  - tremolo bar inverted dip
 =   - hold bend; also acts as connecting device for hammers/pulls
 <> - volume swell (louder/softer)
 x   - on rhythm slash represents muted slash
 o   - on rhythm slash represents single note slash

Misc Legend
-----------
 |  - bar
||  - double bar
||o - repeat start
o|| - repeat end
*|  - double bar (ending)
 :  - bar (freetime)
 $  - Segno
 &  - Coda
Tempo markers -  = BPM(8/16=s8/s16), where s8 = swing 8ths, s16 = swing 16ths

Related for The Accolade 2 tab