Guitaretab - guitar tabs
Song name
# A B C D E F G H I J K L M N O P Q R S T U V W X Y Z

Symphony X - Of Sins And Shadows tab

#----------------------------------PLEASE NOTE---------------------------------#
#This file is the author's own work and represents their interpretation of the #
#song. You may only use this file for private study, scholarship, or research. #
#------------------------------------------------------------------------------#

OF SINS AND SHADOWS
As recorded by Symphony X
(From the 1996 Album THE DIVINE WINGS OF TRAGEDY)

Transcribed by Simone Moretti - semenne@email.it
	

Words by Thomas Miller Music by Michael Romeo, Michael Pinnella
Arranged by Symphony X

C5
x 3 5 x x x
	
E5
0 2 x x x x
	
G#5
4 6 6 x x x
	
A5
5 7 x x x x

Gtr I (D G C F A D) - 'Untitled'
Gtr II (D G C F A D) - 'Untitled'
Gtr III (D G C F A D) - 'Untitled'

 Intro
  Q=182
 4/4                                                     5/4
  Gtr I
                                                                       ~~~
  E E E E E E E E   E E E E E E E E   E E E E E E E S S   E E E E E E  H
|-----------------|-----------------|-------------------|-----------------|
|-----------------|-----------------|-------------------|-----------------|
|-----------------|-----------------|-------------------|-----------------|
|-----------------|-----------------|-------------------|-----------------|
|-----------------|---------2-1-----|---------------4-2-|-1---------------|
|-2-2-0-2-2-0-2-0-|-2-0-2-3-----0-3-|-2-2-0-2-2-0-2-----|---3-2-0-2-0-[3]-|


 4/4
  Gtr I
  PM----------------------------------------------------------------|  ~~~
  e e e e e e e e   e e e e E E e e   e e e e e e e S S   e e e e e e  Q
|-----------------|-----------------|-------------------|------------------|
|-----------------|-----------------|-------------------|------------------|
|-----------------|-----------------|-------------------|------------------|
|-----------------|-----------------|-------------------|------------------|
|-----------------|---------2-1-----|---------------4-2-|-1----------------|
|-2-2-0-2-2-0-2-0-|-2-0-2-3-----0-3-|-2-2-0-2-2-0-2-----|---3-2-0-2-0-[3]--|


  PM---------------------------------
  e e e e e e e e   e e e e E E e e
|-----------------|-----------------|
|-----------------|-----------------|
|-----------------|-----------------|
|-----------------|-----------------|
|-----------------|---------2-1-----|
|-2-2-0-2-2-0-2-0-|-2-0-2-3-----0-3-|


                                       6/4
 -------------------------------|
  e e e e e e e S S   e e e e e e E E   Q  E E E E H.
|-------------------|-----------------|-----------------|
|-------------------|-----------------|-----------------|
|-------------------|-----------------|-----------------|
|-------------------|-----------------|-----------------|
|---------------4-2-|-1-----------4-5-|--------4-5------|
|-2-2-0-2-2-0-2-----|---3-2-0-2-0-2-3-|----2-0-2-3------|


 4/4
  PM----------------------------------------------------------------|  ~~~
  e e e e e e e e   e e e e E E e e   e e e e e e e S S   e e e e e e  Q
|-----------------|-----------------|-------------------|------------------|
|-----------------|-----------------|-------------------|------------------|
|-----------------|-----------------|-------------------|------------------|
|-----------------|-----------------|-------------------|------------------|
|-----------------|---------2-1-----|---------------4-2-|-1----------------|
|-2-2-0-2-2-0-2-0-|-2-0-2-3-----0-3-|-2-2-0-2-2-0-2-----|---3-2-0-2-0-[3]--|


  PM-------------------------------------------------------------------------|
                                                       |----3----| |----3----|
  e e e e e e e e   e e e e E E e e   e e e e e e q    E E E E E E E E E E E E
|-----------------|-----------------|----------------|-------------------------|
|-----------------|-----------------|----------------|-------------------------|
|-----------------|-----------------|----------------|-6-4-3-------------------|
|-----------------|-----------------|----------------|-------5-4-2-------------|
|-----------------|---------2-1-----|----------------|-------------4-2-1-------|
|-2-2-0-2-2-0-2-0-|-2-0-2-3-----0-3-|-2-2-0-2-2-0-2--|-------------------3-2-0-|


  PM----------------------------------------------------------------|
  e e e e e e e e   e e e e E E e e   e e e e e e e S S   e e e e e e  Q
|-----------------|-----------------|-------------------|-----------------|
|-----------------|-----------------|-------------------|-----------------|
|-----------------|-----------------|-------------------|-----------------|
|-----------------|-----------------|-------------------|-----------------|
|-----------------|---------2-1-----|---------------4-2-|-1---------------|
|-2-2-0-2-2-0-2-0-|-2-0-2-3-----0-3-|-2-2-0-2-2-0-2-----|---3-2-0-2-0-[3]-|


  PM---------------------------------
  e e e e e e e e   e e e e E E e e
|-----------------|-----------------|
|-----------------|-----------------|
|-----------------|-----------------|
|-----------------|-----------------|
|-----------------|---------2-1-----|
|-2-2-0-2-2-0-2-0-|-2-0-2-3-----0-3-|


 -----------| ~
  e e e e e e q    S S S S S S S S S S S S S S S S
|----------------|----------------------------------|
|----------------|----------------------------------|
|----------------|----------------------------------|
|----------------|-----------------5p4h5p4----------|
|----------------|-5p4h5p4-4p2h4p2---------4p1h4p1--|
|-2-2-0-2-2-0-2--|----------------------------------|


  PM----------------------------------------------------------------|  ~~~
  e e e e e e e e   e e e e E E e e   e e e e e e e S S   e e e e e e  Q
|-----------------|-----------------|-------------------|-----------------|
|-----------------|-----------------|-------------------|-----------------|
|-----------------|-----------------|-------------------|-----------------|
|-----------------|---------2-1-----|---------------4-2-|-1---------------|
|-2-2-0-2-2-0-2-0-|-2-0-2-3-----0-3-|-2-2-0-2-2-0-2-----|---3-2-0-2-0-[3]-|
|-----------------|-----------------|-------------------|-----------------|


  E E E E E E E E   E E E E E E E E
|-----------------|-----------------|
|-----------------|-----------------|
|-----------------|-----------------|
|-----------------|-----------------|
|-----------------|---------4-3-----|
|-4-4-2-4-4-2-4-2-|-4-2-4-5-----2-5-|


                                          ~~~~~
  E E E E E E E S S   E E E E E E E E     Q    H.    W
|-------------------|-----------------|------------|----|
|-------------------|-----------------|------------|----|
|-------------------|-----------------|------------|----|
|-------------------|-----------------|------------|----|
|---------------6-4-|-3---------------|------------|----|
|-4-4-2-4-4-2-4-----|---5-4-2-4-2-4-5-|-([5])------|----|


 Verse
  $
  PM---------------------------------------------------------------
  E E E S S E E E S S   E E E S S E E E S S   E E E S S E E E S S
|---------------------|---------------------|---------------------|
|---------------------|---------------------|---------------------|
|---------------------|---------------------|---------------------|
|---------------------|---------------------|---------------------|
|-4-4---4-4-4-4---4-4-|-4-4---4-4-4-4---4-4-|-4-4---4-4-4-4---4-4-|
|---------------------|---------------------|---------------------|


 -----------------------------------------|
  E E E S S E E E S S   E E E S S E E E S S
|---------------------|------------------------|
|---------------------|------------------------|
|---------------------|------------------------|
|---------------------|------------------------|
|-4-4---4-4-4-4---4-4-|-4-4---4-4-4-4---4-4----|
|---------------------|------------------------|


  PM----------------|                      ~~~
  E E E S S E E E S S   W          +H      H
|---------------------|----------|---------------|
|---------------------|----------|---------------|
|---------------------|----------|---------------|
|---------------------|-2--------|-(2)----[1]----|
|-4-4---4-4-4-4---4-4-|-0--------|-(0)-----6-----|
|---------------------|----------|---------4-----|


  PM--------------------------------------|
  E E E S S E E E S S   E E E S S E E E S S
|---------------------|------------------------|
|---------------------|------------------------|
|---------------------|------------------------|
|---------------------|------------------------|
|-4-4---4-4-4-4---4-4-|-4-4---4-4-4-4---4-4----|
|---------------------|------------------------|


  PM-----------------------------------------
  E E E S S E E E S S   E E E S S E E E S S
|---------------------|---------------------|
|---------------------|---------------------|
|---------------------|---------------------|
|---------------------|---------------------|
|-4-4---4-4-4-4---4-4-|-4-4---4-4-4-4---4-4-|
|---------------------|---------------------|


 -----------------------------------------|
  E E E S S E E E S S   E E E S S E E E S S
|---------------------|----------------------|
|---------------------|----------------------|
|---------------------|----------------------|
|---------------------|----------------------|
|-4-4---4-4-4-4---4-4-|-4-4---4-4-4-4---4-4--|
|---------------------|----------------------|


  H    E E Q    +W           H    E E Q    +W           H.      Q    +W
|-------------|------------|-------------|------------|------------|--------|
|-------------|------------|-------------|------------|------------|--------|
|-------------|------------|------4------|------------|-4----------|--------|
|------7-6-5--|-(5)--------|-4------4-3--|-(3)--------|-2-------4--|-(4)----|
|-7-----------|------------|-------------|------------|-2-------4--|-(4)----|
|-5-----------|------------|-------------|------------|-0-------2--|-(2)----|


 Chorus
                                 PM|                        PM|
  H.      Q    +W           H    e e Q    +W           H    e e Q    +W
|------------|------------|-------------|------------|-------------|--------|
|------------|------------|-------------|------------|-------------|--------|
|---------6--|-(6)--------|-5--------5--|-(5)--------|-3--------3--|-(3)----|
|-3-------4--|-(4)--------|-4----4-4-3--|-(3)--------|-1----1-1-2--|-(2)----|
|-1----------|------------|-------------|------------|-------------|--------|
|------------|------------|-------------|------------|-------------|--------|


  PM----------------------------|  ~~~
  e e e e e e e s s   e e e e e e  Q
|-------------------|------------------|
|-------------------|------------------|
|---------------5-3-|-2----------------|
|-3-3-1-3-3-1-3-----|---4-3-1-3-1-[3]--|
|-------------------|------------------|
|-------------------|------------------|


                                 PM|
  H.      Q    +W           H    e e Q    +W
|------------|------------|-------------|--------|
|------------|------------|-------------|--------|
|---------6--|-(6)--------|-5--------5--|-(5)----|
|-3-------4--|-(4)--------|-2----2-2-3--|-(3)----|
|-1----------|------------|-------------|--------|
|------------|------------|-------------|--------|


       PM|                     PM|   PM|
  H    e e Q    +W           E e e E e e Q
|-------------|------------|----------------|
|-------------|------------|----------------|
|----------6--|-(6)--------|-5-----5-----5--|
|-6--------4--|-(4)--------|-3-3-3-3-3-3-3--|
|-4----4-4----|------------|----------------|
|-------------|------------|----------------|


 To Coda
  +W      E E E E E E E E   E E E E E E E E
|-------|-----------------|-------------------|
|-------|-----------------|-------------------|
|-(5)---|-----------------|-------------------|
|-(3)---|-----------------|---------5-4-------|
|-------|-5-5-3-5-5-3-5-3-|-5-3-5-6-----3-6---|
|-------|-----------------|-------------------|


 Guitar Break
  E E  Q      +E   S  S  S  S  S  S
|-----20b22==(20)r18h20-16h18--------|
|-----------------------------17h19--|
|------------------------------------|
|------------------------------------|
|-5----------------------------------|
|------------------------------------|
|
| Gtr II
| Q X  Q      +E   S  S  S  S  S  T.
|------------------------------------|
|-----21b23==(21)r19-21-17-19--------|
|-----21b23==(21)r19-21-17-19-17-19--|
|-----------------------------19-20--|
|------------------------------------|
|------------------------------------|


 5/4
                                ~~~~~~
        S  S  S  S  S  S  S  S  Q   H
|----------------------------------17-------------|
|------19p17--------------------------------------|
|------------21p19-19p17-15h17-14-----------------|
|-------------------------------------------------|
|-------------------------------------------------|
|-------------------------------------------------|
|
|                               ~~~~~~~~~~~~~~~~~~
|  +X   S  S  S  S  S  S  S  S  Q   Q   +E..  +X
|----------------------------------14--(14)--(14)-|
|----------------------------------15--(15)--(15)-|
|-(19)-19-17-17-15-15-14-12-14-11-----------------|
|-(20)-20-19-19-17-17-16-14-16-12-----------------|
|-------------------------------------------------|
|-------------------------------------------------|


                                                          D.S. al Coda
 4/4
  PM----------------------------------------------------------------|  ~~~
  e e e e e e e e   e e e e e e e e   e e e e e e e s s   e e e e e e  Q
|-----------------|-----------------|-------------------|------------------|
|-----------------|-----------------|-------------------|------------------|
|-----------------|-----------------|-------------------|------------------|
|-----------------|-----------------|-------------------|------------------|
|-----------------|---------4-3-----|---------------6-4-|-3----------------|
|-4-4-2-4-4-2-4-2-|-4-2-4-5-----2-5-|-4-4-2-4-4-2-4-----|---5-4-2-4-2-[5]--|


 Interlude
  &
  W          +W              E  E H.
|----------|------------||----------------|
|----------|------------||o---------------|
|----------|------------||----------------|
|-2--------|-(2)--------||---7------------|
|-0--------|-(0)--------||o--5------------|
|----------|------------||----------------|


                                   PM--------|
                                   |-3-| |-3-|
  H.      Q    E  E H.        H    e e e e e e
|------------|--------------|-------------------|
|------------|--------------|-------------------|
|------------|--------------|-------------------|
|---------7--|-7------------|------8-7-5--------|
|---------5--|-4------------|------------8-7-4--|
|------------|--------------|-------------------|


                                     1.        2.
  E E H.        H.       Q     W       W         W
|-------------|-------------|-------|--------||-------|
|-------------|-------------|-------|-------o||-------|
|-------------|-------------|-------|--------||-------|
|-7-----------|---------10--|-10----|-13-----||-12----|
|-5-----------|----------7--|--8----|-11----o||-10----|
|-------------|-------------|-------|--------||-------|


 Guitar Solo 1
  C5
  Gtr II
   E  E  E  E  E  E  E  E
   |  |     |  |  |     |
   /  /     /  /  /     /

         T        T        T
               |--3--|
   S  S  S  S  S  S  S  S  S  S  S  S  S  S  S  S  S
|----------------------------------------------------|
|----------------------------------------------------|
|----------15h17-20p17p15----------------------------|
|----------------------------------------------------|
|-15h18-22----------------22p18p15----------15h18-22-|
|----------------------------------16p15h16----------|


   E  E  E  E  E  E  E  E
   |  |     |  |  |     |
   /  /     /  /  /     /

         T        T        T        T                       T
   |------3-------|  |------3-------|
   S  S  S  S  S  S  S  S  S  S  S  S  S  S  S  S  S  S  S  S
|----------15h18-20p18p15--------------------------------------|
|--------------------------------------------------------------|
|-15h17-20----------------20p17p15-----------------------------|
|--------------------------------------------------------------|
|----------------------------------22p18p15----------15h18-22--|
|-------------------------------------------16p15h16-----------|


   E  E  E  E  E  E  E  E
   |  |     |  |  |     |
   /  /     /  /  /     /

         T        T        T           T        T           T
   |--3--|  |--3--|  |--3--|        |--3--|              |--3--|
   S  S  S  S  S  S  S  S  S  S  S  S  S  S  S  S  S  S  S  S  S
|----------15h18-20p18p15----------18-22p18p15----------18-23p18p|
|----------------------------------------------------------------|
|-15h17-20----------------20p17p15-------------20p17p15----------|
|----------------------------------------------------------------|
|----------------------------------------------------------------|
|----------------------------------------------------------------|


   E  E   E    E   E     E   E      E
   |  |        |   |     |          |
   /  /        /   /     /          /

                                    ~~
   E      Q       +E        +Q      E  S  S
|-15\---/22b23r==(22)b23r==(22)b23-22-18-22----|
|----------------------------------------------|
|----------------------------------------------|
|----------------------------------------------|
|----------------------------------------------|
|----------------------------------------------|


   E E   E   E  E  E  E     E
   | |       |  |  |        |
   / /       /  /  /        /

         \3
                   ~~
   Q    +E   S  S  Q  Q
|-20---(20)-15h20p15-15b16=====|
|------------------------------|
|------------------------------|
|------------------------------|
|------------------------------|
|------------------------------|


    E    E   E  E  E  E  E  E
    |    |      |  |  |     |
    /    /      /  /  /     /

    a   +S   S  S  S  S  S  S  S  S  S  S  S  S  S  S  S
|-(15)r(15)-14h15p14----------14h15p14---------------------|
|--------------------16p13h16----------16p13s10h13---------|
|--------------------------------------------------12p11---|
|----------------------------------------------------------|
|----------------------------------------------------------|
|----------------------------------------------------------|


  G#5
   W                                             +W
   |                                              |
   /                                              /

                                                                       ~~~
   S  S  S  S  S  S  S  S  S S  S  S  S S  S S    S  S  S S  S  S S S  H
|----------------------------------------------|-----------------------------|
|----------------------------------------------|-----------------------------|
|----------11h12p11----------------------------|-----------------------------|
|-13p10h13----------13p10h13-9h10h12p10p9------|-----------------------------|
|-----------------------------------------10p8h|=10-11p10p8------------------|
|----------------------------------------------|------------11p10p8s7-[8]----|


 Key Solo 1 (arr. for guitar)
  E5
   E  E  E  E  E  E  E E
   |  |     |  |  |    |
   /  /     /  /  /    /
[ Tab from: http://www.guitaretab.com/s/symphony-x/33163.html ]
  Gtr III
   S  S  S  S  S  S  S S S  S S S  S S S  S
|-12-11-------------------------------------|
|-------13-12-10----------------------------|
|----------------12-11-9-8------8-----------|
|--------------------------10-9---10-9-7----|
|----------------------------------------10-|
|-------------------------------------------|


  E E  E E E  E E E
  | |    | |  |   |
  / /    / /  /   /

                                   T
  S S  S S S  S S S  S S  S S S S  S S
|----------------------------------------|
|----------------------------------------|
|----------------------8-----------------|
|---------------7-9-10---10-9-7-9-14-9---|
|-9-7----7-9-10--------------------------|
|-----11---------------------------------|


  E E  E E E E  E E
  | |    | | |    |
  / /    / / /    /

  Gtr III
       T        T        T        T
  S S  S S S S  S S S S  S S S S  S S
|-------------------------------------|
|-------------------------------------|
|-------------------------------------|
|-7-9-16-9-7-9-17-9-7-9-16-9-7-9-14-9-|
|-------------------------------------|
|-------------------------------------|


  E  E E  E E  E  E  E
  |  |    | |  |     |
  /  /    / /  /     /

     T
  S  S S  S S  S  S  S  S  S  S  S  S  S  E
|----------------------11----------------11----|
|----------------10-13----13-10----10-13-------|
|-----------8-11----------------11-------------|
|-7-13-7-10------------------------------------|
|----------------------------------------------|
|----------------------------------------------|


   E E  E  E  E    E  E  E    E E  E  E  E    E  E E
   | |     |  |    |     |    | |     |  |    |    |
   / /     /  /    /     /    / /     /  /    /    /

   Q    E  E  Q       E  E    Q    E  E  Q       Q
|-12---14-15-15b17---15-14-|-15---17-19-19b20---19----|
|--------------------------|--------------------------|
|--------------------------|--------------------------|
|--------------------------|--------------------------|
|--------------------------|--------------------------|
|--------------------------|--------------------------|


  C5
   W
   |
   /

   S  S  S  S  S  S  S  S  S  S  S  S  S  S  S  S
|-17-19-20-19-17----------------------------------|
|----------------20-19-17-19-20-19-17-------------|
|-------------------------------------19-17-16-17-|
|-------------------------------------------------|
|-------------------------------------------------|
|-------------------------------------------------|


  +W
   |
   /

   S  S  S  S  S  S  S  S  S  S  S  S  S  S  E
|-------------------------------------------------|
|----17-------------------------------------------|
|-19----19-17-16----------------------------------|
|----------------19-17-16----16-17-19-17-16-------|
|-------------------------19----------------19----|
|-------------------------------------------------|


 Guitar Solo 2
  G#5
   E  E  E  E  E  E  E  E
   |  |     |  |  |     |
   /  /     /  /  /     /

  Gtr I
   S  S  S  S  S  S  S  S  S  S  S  S  S  S  S  S
|-19-23-21-19-18-21-19-18-16-19-18-16-15-16-18-16-|
|-------------------------------------------------|
|-------------------------------------------------|
|-------------------------------------------------|
|-------------------------------------------------|
|-------------------------------------------------|


   E  E  E  E  E  E  E  E
   |  |     |  |  |     |
   /  /     /  /  /     /

   S  S  S  S  S  S  S  S  S  S  S  S  S  S  S  S
|-15----------------15-16-18-16-15------------------|
|---------------------------------------------------|
|----18-16-15-16-18----------------18-16-15---------|
|---------------------------------------------------|
|-------------------------------------------18-18---|
|---------------------------------------------------|


   E  E  E  E  E  E  E  E
   |  |     |  |  |     |
   /  /     /  /  /     /

   S  S  S  S  S  S  S  S  S  S  S  S  S  S  S  S
|----------------15-16-18-16-15----------------15-|
|-------------------------------------------------|
|-------15-16-18----------------18-16-15-16-18----|
|-------------------------------------------------|
|-16-18-------------------------------------------|
|-------------------------------------------------|


   E  E  E  E  E  E  E  E
   |  |     |  |  |     |
   /  /     /  /  /     /

                           ~~~~~
   S  S  S  S  S  S  S  S  H
|-16-18-16-15----------------------|
|-------------------------19b21----|
|-------------18-16-15-16----------|
|----------------------------------|
|----------------------------------|
|----------------------------------|


   E     E   E   E  E  E  E E        E       E    E  E  E E   E E
   |     |       |  |  |    |        |       |       |  | |     |
   /     /       /  /  /    /        /       /       /  / /     /

                          ~~                                  ~~~
                                     |--------3---------|
   Q        +S   S  S  S  H          Q       a   +Q     Q     H
|-18b19====(18)r16h18p16----------|-18b19==(18)r(18)p==16------------|
|---------------------------------|----------------------------------|
|------------------------20-------|-------------------------\13------|
|---------------------------------|----------------------------------|
|---------------------------------|----------------------------------|
|---------------------------------|----------------------------------|


  E5
  W
  |
  /

                              |-3--|
  S  S S S  S S S  S S S  S S S  S S S  S
|-9-11-7----------------------------------|
|--------9-11-7---------------------------|
|---------------9-11-8--------------------|
|----------------------9-11-8-------------|
|-----------------------------9-11-7------|
|------------------------------------9-11-|


  +W
   |
   /

                               |----5-----|
   S S  S S S  S S S  S S S  S S  S  S  S S
|-------------------------------------------|
|------------------------------9-11-12-11-9-|
|-----------------------8-9-11--------------|
|----------------8-9-11---------------------|
|---------7-9-11----------------------------|
|--7-9-11-----------------------------------|


 Key Solo 2 (arr. for guitar)
  C5
   E       E    E   E  E E  E      E      E   E     E   E  E     E   E    E
   |       |        |  | |         |      |   |         |  |     |        |
   /       /        /  / /         /      /   /         /  /     /        /

   ~~~~~~
   Q            H.                        W
|-------------------------------------|---------------------------------------|
|-------------------------------------|---------------------------------------|
|-12----------------------------------|---------------------------------------|
|-------------------------------------|---------------------------------------|
|-------------------------------------|---------------------------------------|
|-------------------------------------|---------------------------------------|
|
| Gtr III
|                           \0.5/             \1/
|  E.     +S   +E   E  Q    E      E     +E   E    +E   E  Q         a   +Q
|-------------------------------------|----------------16-15b16====(15)r(15)--|
|-12b13==(12)r(12)---------16-----15--|-(15)-18---(18)------------------------|
|------------------13-12--------------|---------------------------------------|
|-------------------------------------|---------------------------------------|
|-------------------------------------|---------------------------------------|
|-------------------------------------|---------------------------------------|


   E  E  E  E  E  E  E  E
   |  |     |  |  |     |
   /  /     /  /  /     /

   W
|----------------------------------------------------|
|----------------------------------------------------|
|----------------------------------------------------|
|----------------------------------------------------|
|----------------------------------------------------|
|----------------------------------------------------|
|
|  S  S  S  S  S  S  S  S  S  S  S  S  S  S  S  S
|-20-18-16-15----------------------------------------|
|-------------18-16-15-13----------13----------------|
|-------------------------15-13-12----13-12----------|
|-------------------------------------------15-13----|
|----------------------------------------------------|
|----------------------------------------------------|


   E   E  E  E  E     E   E    E
   |   |     |  |     |        |
   /   /     /  /     /        /

  Gtr III
   E.  S  E  E  Q         a   +Q
|-----------------------------------|
|-----------------------------------|
|-----------------------------------|
|-12--12-13-15-12b13====(12)r(12)---|
|-----------------------------------|
|-----------------------------------|


   E   E  E E E  E   E  E                     E  E  E   E      E E  E E
   |   |    | |  |      |                     |  |      |      | |    |
   /   /    / /  /      /                     /  /      /      / /    /

   \1/
   Q      S S S  S  +E  E     +E   a  +S  S   E  E  E  +E      Q    Q
|-------------------------------------------|------------------------------|
|-------------------------------------------|----------------------13------|
|-----------7-8-10-(10)-8b10==(8)-(8)r(8)-7-|-8-10-12-(12)b13-12-----------|
|-10-----10---------------------------------|------------------------------|
|-------------------------------------------|------------------------------|
|-------------------------------------------|------------------------------|


  G#5
   W
   |
   /

   E  S  S  S  S  S  S  S S S  S S S  S S
|----10-11-13-11-10-----------------------|
|-13----------------13-11-9-8-------------|
|-----------------------------10-8-7------|
|------------------------------------10-8-|
|-----------------------------------------|
|-----------------------------------------|


  +W
   |
   /

   S S S S S S S S S S S S S S S S
|-------------------------------------|
|-------------------------------------|
|----------5--------------------------|
|--6-5-6-8---8-6-5--------------------|
|------------------8-6-5-3------------|
|--------------------------6-4-3-1----|


  A5
   W
   |
   /

  Gtr I
         T        T        T        T        T
   S  S  S  S  S  S  S  S  S  S  S  S  S  S  S  S
|----------------------------------------------11h|
|----------------------------10h13-16-------------|
|----------11h14-17-------------------11h14-17----|
|-------------------10h13-16----------------------|
|-12h15-18----------------------------------------|
|-------------------------------------------------|


  +W
   |
   /

   T           T        T        T        T
   S  S  S  S  S  S  S  S  S  S  S  S  S  S  S  S
|-14-17----------14h17-20----------17h20-23p20p17---|
|---------------------------------------------------|
|-------14h17-20----------17h20-23------------------|
|---------------------------------------------------|
|---------------------------------------------------|
|---------------------------------------------------|


 Chorus
  Gtr I
                                  PM|                        PM|
   H.      Q    +W           H    e e Q    +W           H    e e Q    +W
|-------------|------------|-------------|------------|-------------|--------|
|-------------|------------|-------------|------------|-------------|--------|
|----------6--|-(6)--------|-5--------5--|-(5)--------|-3--------3--|-(3)----|
|--3-------4--|-(4)--------|-4----4-4-3--|-(3)--------|-1----1-1-2--|-(2)----|
|--1----------|------------|-------------|------------|-------------|--------|
|-------------|------------|-------------|------------|-------------|--------|
|
| Gtr II
|  ~~~
|  H.      Q     W           W              W           W              W
|-18----------|------------|-------------|------------|-------------|--------|
|-------------|------------|-------------|------------|-------------|--------|
|-------------|------------|-------------|------------|-------------|--------|
|-------------|------------|-------------|------------|-------------|--------|
|-------------|------------|-------------|------------|-------------|--------|
|-------------|------------|-------------|------------|-------------|--------|


  PM----------------------------|  ~~~
  e e e e e e e s s   e e e e e e  Q
|-------------------|------------------|
|-------------------|------------------|
|---------------5-3-|-2----------------|
|-3-3-1-3-3-1-3-----|---4-3-1-3-1-[3]--|
|-------------------|------------------|
|-------------------|------------------|


                                 PM|
  H.      Q    +W           H    e e Q    +W
|------------|------------|-------------|--------|
|------------|------------|-------------|--------|
|---------6--|-(6)--------|-5--------5--|-(5)----|
|-3-------4--|-(4)--------|-2----2-2-3--|-(3)----|
|-1----------|------------|-------------|--------|
|------------|------------|-------------|--------|


       PM|                     PM|   PM|
  H    e e Q    +W           E e e E e e Q    +W
|-------------|------------|----------------|--------|
|-------------|------------|----------------|--------|
|----------6--|-(6)--------|-5-----5-----5--|-(5)----|
|-6--------4--|-(4)--------|-3-3-3-3-3-3-3--|-(3)----|
|-4----4-4----|------------|----------------|--------|
|-------------|------------|----------------|--------|


                                   PM|                        PM|
  H.       Q     +W           H    e e Q    +W           H    e e Q    +W
|-------------|-------------|-------------|------------|-------------|--------|
|-------------|-------------|-------------|------------|-------------|--------|
|---------10--|-(10)--------|-9--------9--|-(9)--------|-7--------7--|-(7)----|
|-7--------8--|--(8)--------|-8----8-8-7--|-(7)--------|-5----5-5-6--|-(6)----|
|-5-----------|-------------|-------------|------------|-------------|--------|
|-------------|-------------|-------------|------------|-------------|--------|


  PM----------------------------|  ~~~
  e e e e e e e s s   e e e e e e  Q
|-------------------|------------------|
|-------------------|------------------|
|---------------9-7-|-6----------------|
|-7-7-5-7-7-5-7-----|---8-7-5-7-5-[7]--|
|-------------------|------------------|
|-------------------|------------------|


                                   PM|
  H.       Q     +W           H    e e Q    +W
|-------------|-------------|-------------|--------|
|-------------|-------------|-------------|--------|
|---------10--|-(10)--------|-9--------9--|-(9)----|
|-7--------8--|--(8)--------|-6----6-6-7--|-(7)----|
|-5-----------|-------------|-------------|--------|
|-------------|-------------|-------------|--------|


        PM|                       PM|   PM|
   H    e e  Q     +W           E e e E e e Q
|---------------|-------------|----------------|
|---------------|-------------|----------------|
|-----------10--|-(10)--------|----------------|
|-10---------8--|--(8)--------|-7-----7-----7--|
|--8----8-8-----|-------------|-7-----7-----7--|
|---------------|-------------|-5-5-5-5-5-5-5--|


                 PM|   PM|
  +W           E e e E e e Q    +W
|------------|----------------|--------|
|------------|----------------|--------|
|------------|----------------|--------|
|-(7)--------|-6-----6-----6--|-(6)----|
|-(7)--------|-4-4-4-4-4-4-4--|-(4)----|
|-(5)--------|----------------|--------|


 Outro
  Gtr I
  PM----------------------------------------------------------------|  ~~~
  e e e e e e e e   e e e e E E e e   e e e e e e e S S   e e e e e e  Q
|-----------------|-----------------|-------------------|-------------------|
|-----------------|-----------------|-------------------|-------------------|
|-----------------|-----------------|-------------------|-------------------|
|-----------------|-----------------|-------------------|-------------------|
|-----------------|---------2-1-----|---------------4-2-|-1-----------------|
|-2-2-0-2-2-0-2-0-|-2-0-2-3-----0-3-|-2-2-0-2-2-0-2-----|---3-2-0-2-0-[3]---|


  PM-------------------------------------------------------------------------|
                                                       |----3----| |----3----|
  e e e e e e e e   e e e e E E e e   e e e e e e q    E E E E E E E E E E E E
|-----------------|-----------------|----------------|-------------------------|
|-----------------|-----------------|----------------|-------------------------|
|-----------------|-----------------|----------------|-6-4-3-------------------|
|-----------------|-----------------|----------------|-------5-4-2-------------|
|-----------------|---------2-1-----|----------------|-------------4-2-1-------|
|-2-2-0-2-2-0-2-0-|-2-0-2-3-----0-3-|-2-2-0-2-2-0-2--|-------------------3-2-0-|


  Gtr I
  PM----------------------------------------------------------------|  ~~~
  e e e e e e e e   e e e e E E e e   e e e e e e e S S   e e e e e e  Q
|-----------------|-----------------|-------------------|-------------------|
|-----------------|-----------------|-------------------|-------------------|
|-----------------|-----------------|-------------------|-------------------|
|-----------------|-----------------|-------------------|-------------------|
|-----------------|---------2-1-----|---------------4-2-|-1-----------------|
|-2-2-0-2-2-0-2-0-|-2-0-2-3-----0-3-|-2-2-0-2-2-0-2-----|---3-2-0-2-0-[3]---|


  PM-----------------------------------------------------
  e e e e e e e e   e e e e E E e e   e e e e e e e S S
|-----------------|-----------------|-------------------|
|-----------------|-----------------|-------------------|
|-----------------|-----------------|-------------------|
|-----------------|-----------------|-------------------|
|-----------------|---------2-1-----|---------------4-2-|
|-2-2-0-2-2-0-2-0-|-2-0-2-3-----0-3-|-2-2-0-2-2-0-2-----|


 -----------|
  e e e e e e E E   Q  E E E E Q
|-----------------|-----------------*|
|-----------------|-----------------*|
|-----------------|-----------------*|
|-----------------|-----------------*|
|-1-----------4-5-|--------4-5------*|
|---3-2-0-2-0-2-3-|----2-0-2-3------*|



Duration Legend
---------------
W - whole; H - half; Q - quarter; E - 8th; S - 16th; T - 32nd; X - 64th; a - acciaccatura
+ - note tied to previous; . - note dotted; .. - note double dotted
Uncapitalized letters represent notes that are staccato (1/2 duration)
Irregular groupings are notated above the duration line
Duration letters will always appear directly above the note/fret number it represents the
duration for.  Duration letters with no fret number below them represent rests.  Multi-
bar rests are notated in the form Wxn, where n is the number of bars to rest for.  Low
melody durations appear below the staff

Tablature Legend
----------------
 h   - hammer-on
 p   - pull-off
 b   - bend
 pb  - pre-bend
 r   - bend release (if no number after the r, then release immediately)
 /\  - slide into or out of (from/to "nowhere")
 s   - legato slide
 S   - shift slide
 - natural harmonic
[n]  - artificial harmonic
n(n) - tapped harmonic
 ~   - vibrato
 tr  - trill
 T   - tap
 TP  - trem. picking
 PM  - palm muting
\n/  - tremolo bar dip; n = amount to dip
 \n  - tremolo bar down
 n/  - tremolo bar up
/n\  - tremolo bar inverted dip
 =   - hold bend; also acts as connecting device for hammers/pulls
 <> - volume swell (louder/softer)
 x   - on rhythm slash represents muted slash
 o   - on rhythm slash represents single note slash

Misc Legend
-----------
 |  - bar
||  - double bar
||o - repeat start
o|| - repeat end
*|  - double bar (ending)
 :  - bar (freetime)
 $  - Segno
 &  - Coda
Tempo markers -  = BPM(8/16=s8/s16), where s8 = swing 8ths, s16 = swing 16ths

Related for Of Sins And Shadows tab