Song name
# A B C D E F G H I J K L M N O P Q R S T U V W X Y Z

Symphony X - Church The Machine tab

Symphony X 
Twilight in Olympus
------ Church the Machine ------

I don't know if they've tuned down for this one!!
This music start on the chorus!!

 e ----------------------------------------------------------------------------------------||
 B ----------------------------------------------------------------------------------------||
 G ----------------------------------------------------------------------------------------||
 D -10--8~~--6---5~~--6---3~~--11--9~~----10--8~~--6---5~~--6---3~~--11--9~~----7~~~~~~~~--||
 A -10--8~~--6---5~~--6---3~~--11--9~~----10--8~~--6---5~~--6---3~~--11--9~~----7~~~~~~~~--||
 E -8---6~~--4---3~~--4---1~~--9---7~~----8---6~~--4---3~~--4---1~~--9---7~~----5~~~~~~~~--||


 e ------------------|------------------|-------------------|------------------------------||
 B ---Repeat-6-Times-|--Repeat-10-times-|-------------------|---Reapeat-2-times------------||
 G -2---2--2-2--2----|-4----4---4--4-4--|-----4---6--7------|------------------------------||
 D -2---2--2-2--2----|-4----4---4--4-4--|-----4---6--7---2--|-3----3---3--3-3--------------||
 A -0-0-0--0-0--000--|-2----2---2--2-2--|-----2---4--5---2--|-3----3---3--3-3--------------||
 E ------------------|------------------|----------------0--|-1----1---1--1-1--------------||

To be Continue........

Transcribed by André Gil!!
andre_gil@geocities.com
Tap to rate this tab
 
# A B C D E F G H I J K L M N O P Q R S T U V W X Y Z