Song name
# A B C D E F G H I J K L M N O P Q R S T U V W X Y Z

Symphorce - Darkness Fills The Sky tab

Help us improve GuitareTab! Take a short survey!
symphorce website http://www.symphorce.de/
          signed band

Symphorce - Darkness Fills The Skies - Become Death

Tabbed by Elvisz (elvisz84@yahoo.com)
Tuning : 7 String normal tunning (B E A D G b e)

Intro:
e|-------0-------------0-------------0-------------7-------|
b|-----7---7---------6---6---------5---5---------7---7-----|
G|---7-------7-----7-------7-----6-------6-----7-------7---|
D|-9-----------9-9-----------9-8-----------8-9-----------9-|	(guitar1)
A|---------------------------------------------------------|
E|---------------------------------------------------------|
B|---------------------------------------------------------|

e|---------------------------------------------------------|
b|---------------------------------------------------------|
G|---------------------------------------------------------|
D|---------------------------------------------------------|	(guitar2)
A|-2~~~~~~~~~~~~-2~~~~~~~~~~~~-2~~~~~~~~~~~~-2~~~~~~~~~~~~-|
E|-2~~~~~~~~~~~~-2~~~~~~~~~~~~-2~~~~~~~~~~~~-2~~~~~~~~~~~~-|
B|-0~~~~~~~~~~~~-0~~~~~~~~~~~~-0~~~~~~~~~~~~-0~~~~~~~~~~~~-|

Pre-Verse:
e|--------------------------------------------------------------------------------------------------|
b|--------------------------------------------------------------------------------------------------|
G|--------------------------------------------------------------------------------------------------|
D|----------------------------------------------------------------------------2---1-----------3---2-|	(guitar1)
A|--------------------------------------------------------------------3---2-----------4---3---------|
E|------------------32-------------------32-------------------32------------------------------------|
B|-01-00-0-4--01-00---54-01-00-0-4-01-00---54-01-00-0-4-01-00---54--1---1---1---1---2---2---2---2---|
  .. .. .    .. .. .... .. .. .   .. .. .... .. .. . . .. .. ....  .   .   .   .   .   . 
 .   .     .palm mute

e|--------------------------------------------------------------------------------------------------|
b|--------------------------------------------------------------------------------------------------|
G|----------------------------------------------------------------------------1---0-----------2---1-|
D|--------------------------------------------------------------------2---1-----------3---2---------|	(guitar2)
A|--------------------------------------------------------------------------------------------------|
E|------------------32-------------------32-------------------32------------------------------------|
B|-01-00-0-4--01-00---54-01-00-0-4-01-00---54-01-00-0-4-01-00---54--1---1---1---1---2---2---2---2---|
  .. .. .    .. .. .... .. .. .   .. .. .... .. .. . . .. .. ....  .   .   .   .   .   . 
 .   .     .palm mute

Fill1:(guitar1 & guitar2)
e|------------------------------------------------------------------|
b|------------------------------------------------------------------|
G|------------------------------------------------------------------|
D|------------------------------------------------------------------|
A|--------9/1010\7--------9/1010\7--------9/1010\7--------10~~~7~~~-|
E|-22-222-7/ 8 8\5-22-222-7/ 8 8\5-22-222-7/ 8 8\5-------- 8~~~5~~~-|
B|-00-000----------00-000----------00-000----------00-000-----------|
   .. ...          .. ...          .. ...          .. ...            .palm mute

Verse:(guitar1 & guitar2)
e|------------------------------------------------------------|
b|------------------------------------------------------------|
G|------------------------------------------------------------|
D|------------------------------------------------------------|
A|----------------------9/1010\7---------------5~~~~~-----7---|
E|-22-222-22-222-22-222-7/ 8 8\5-22-222-22-222-5~~~~~---7---7-|
B|-00-000-00-000-00-000----------00-000-00-000-3~~~~~-5-------|
   .. ... .. ... .. ...          .. ... .. ...                  .palm mute

e|------------------------------------------------------------|
b|------------------------------------------------------------|
G|------------------------------------------------------------|
D|---------------------------------------------5~~~~~-4~~~~~~-|
A|----------------------9/1010\7---------------5~~~~~-4~~~~~~-|
E|-22-222-22-222-22-222-7/ 8 8\5-22-222-22-222-3~~~~~-2~~~~~~-|
B|-00-000-00-000-00-000----------00-000-00-000----------5vbr--|
   .. ... .. ... .. ...          .. ... .. ...                 .palm mute

Pre-Chorus:(guitar1 & guitar2)
e|-----------------------------------------------------------------|
b|-----------------------------------------------------------------|
G|-----------------------------------------------------------------|
D|-----------------------------------------------------------------|
A|----------441133----------441133----------10\7/9----------10\7/9-|
E|------------------------------------------ 8\5/7---------- 8\5/7-|
B|-11111111--------11111111--------00000000--------00000000--------|
   ........        ........        ........        ........         .palm mute

e|------------------------------------------------|
b|------------------------------------------------|
G|------------------------------------------------|
D|------------------------------------------------|
A|------------431--------------431----5~~~~-7~~~~-|
E|---------------431--------------431-5~~~~-7~~~~-|
B|-111111h3r1--------11111h3r1--------3~~~~-5~~~~-|
   ..........        .........                     .palm mute

Chorus:(guitar1 & guitar2)
e|---------------------------------|
b|---------------------------------|
G|---------------------------------|
D|-2-2-222-5-5-555-5-5-555-7-7-777-|
A|-2-2-222-5-5-555-5-5-555-7-7-777-|
E|-0-0-000-3-3-333-3-3-333-5-5-555-|
B|-0-0-000-3-3-333-3-3-333-5-5-555-|

e|----------------------------------|
b|----------------------------------|
G|----------------------------------|
D|-2-2-222-5-5-555-5-5-555-7-7-7/99-|
A|-2-2-222-5-5-555-5-5-555-7-7-7/99-|
E|-0-0-000-3-3-333-3-3-333-5-5-5/77-|
B|-0-0-000-3-3-333-3-3-333-5-5-5/77-|

e|---------------------------------|
b|---------------------------------|
G|---------------------------------|
D|-2-2-222-5-5-555-5-5-555-7-7-777-|
A|-2-2-222-5-5-555-5-5-555-7-7-777-|
E|-0-0-000-3-3-333-3-3-333-5-5-555-|
B|-0-0-000-3-3-333-3-3-333-5-5-555-|

e|---------------------------------|
b|---------------------------------|
G|---------------------------------|
D|-2-2-222-5-5-555-----------------|
A|-2-2-222-5-5-555-3-3-333-5-5-555-|
E|-0-0-000-3-3-333-3-3-333-5-5-555-|
B|-0-0-000-3-3-333-1-1-111-3-3-333-|

Pre-Verse:
e|--------------------------------------------------------------------------------------------------|
b|--------------------------------------------------------------------------------------------------|
G|--------------------------------------------------------------------------------------------------|
D|----------------------------------------------------------------------------2---1-----------3---2-|	(guitar1)
A|--------------------------------------------------------------------3---2-----------4---3---------|
E|------------------32-------------------32-------------------32------------------------------------|
B|-01-00-0-4--01-00---54-01-00-0-4-01-00---54-01-00-0-4-01-00---54--1---1---1---1---2---2---2---2---|
  .. .. .    .. .. .... .. .. .   .. .. .... .. .. . . .. .. ....  .   .   .   .   .   . 
 .   .     .palm mute

e|--------------------------------------------------------------------------------------------------|
b|--------------------------------------------------------------------------------------------------|
G|----------------------------------------------------------------------------1---0-----------2---1-|
D|--------------------------------------------------------------------2---1-----------3---2---------|	(guitar2)
A|--------------------------------------------------------------------------------------------------|
E|------------------32-------------------32-------------------32------------------------------------|
B|-01-00-0-4--01-00---54-01-00-0-4-01-00---54-01-00-0-4-01-00---54--1---1---1---1---2---2---2---2---|
  .. .. .    .. .. .... .. .. .   .. .. .... .. .. . . .. .. ....  .   .   .   .   .   . 
 .   .     .palm mute

Fill2:(guitar1 & guitar2)
e|-----------------|
b|-----------------|
G|-----------------|
D|-----------------|
A|--------9/1010\7-|
E|-22-222-7/ 8 8\5-|
B|-00-000----------|
   .. ...           .palm mute

Verse:(guitar1 & guitar2)
e|------------------------------------------------------------|
b|------------------------------------------------------------|
G|------------------------------------------------------------|
D|------------------------------------------------------------|
A|----------------------9/1010\7---------------5~~~~~-----7---|
E|-22-222-22-222-22-222-7/ 8 8\5-22-222-22-222-5~~~~~---7---7-|
B|-00-000-00-000-00-000----------00-000-00-000-3~~~~~-5-------|
   .. ... .. ... .. ...          .. ... .. ...                 .palm mute

e|------------------------------------------------------------|
b|------------------------------------------------------------|
G|------------------------------------------------------------|
D|---------------------------------------------5~~~~~-4~~~~~~-|
A|----------------------9/1010\7---------------5~~~~~-4~~~~~~-|
E|-22-222-22-222-22-222-7/ 8 8\5-22-222-22-222-3~~~~~-2~~~~~~-|
B|-00-000-00-000-00-000----------00-000-00-000----------5vbr--|
   .. ... .. ... .. ...          .. ... .. ...                 .palm mute

Chorus:(guitar1 & guitar2)
e|---------------------------------|
b|---------------------------------|
G|---------------------------------|
D|-2-2-222-5-5-555-5-5-555-7-7-777-|
A|-2-2-222-5-5-555-5-5-555-7-7-777-|
E|-0-0-000-3-3-333-3-3-333-5-5-555-|
B|-0-0-000-3-3-333-3-3-333-5-5-555-|

e|----------------------------------|
b|----------------------------------|
G|----------------------------------|
D|-2-2-222-5-5-555-5-5-555-7-7-7/99-|
A|-2-2-222-5-5-555-5-5-555-7-7-7/99-|
E|-0-0-000-3-3-333-3-3-333-5-5-5/77-|
B|-0-0-000-3-3-333-3-3-333-5-5-5/77-|

e|---------------------------------|
b|---------------------------------|
G|---------------------------------|
D|-2-2-222-5-5-555-5-5-555-7-7-777-|
A|-2-2-222-5-5-555-5-5-555-7-7-777-|
E|-0-0-000-3-3-333-3-3-333-5-5-555-|
B|-0-0-000-3-3-333-3-3-333-5-5-555-|

e|---------------------------------|
b|---------------------------------|
G|---------------------------------|
D|-2-2-222-5-5-555-----------------|
A|-2-2-222-5-5-555-3-3-333-5-5-555-|
E|-0-0-000-3-3-333-3-3-333-5-5-555-|
B|-0-0-000-3-3-333-1-1-111-3-3-333-|

Bridge1:
e|---------------------------------------------------------------------------------------------------|
b|---------------------------------------------------------------------------------------------------|
G|---------------------------------------------------------------------------------------------------|
D|-------------------------------------------------------------------------------14-13-12-11-12119---|
A|---------------------------------------------1097------------------------------xx-xx-xx-xx------12-|

9---------|
B|----------10-----------10-----------10--10--------------------10-----------10----------------------|
  ..............................................................................         
    ....... .palm mute

Bridge2:
e|-----------------------------------------|
b|-----------------------------------------|
G|-----------------------------------------|
D|-----------------------------------------|
A|----------------------------------5-555~-|
E|-22------22-22-22------22------22-5-555~-|
B|-00-4100-00-00-00-4100-00-4100-00-3-333~-|
      ....          ....    ....            .palm mute

Intro again:
e|-------0-------------0-------------0-------------7-------|
b|-----7---7---------6---6---------5---5---------7---7-----|
G|---7-------7-----7-------7-----6-------6-----7-------7---|
D|-9-----------9-9-----------9-8-----------8-9-----------9-|	(guitar1)
A|---------------------------------------------------------|
E|---------------------------------------------------------|
B|---------------------------------------------------------|

e|---------------------------------------------------------|
b|---------------------------------------------------------|
G|---------------------------------------------------------|
D|---------------------------------------------------------|	(guitar2)
A|-2~~~~~~~~~~~~-2~~~~~~~~~~~~-2~~~~~~~~~~~~-2~~~~~~~~~~~~-|
E|-2~~~~~~~~~~~~-2~~~~~~~~~~~~-2~~~~~~~~~~~~-2~~~~~~~~~~~~-|
B|-0~~~~~~~~~~~~-0~~~~~~~~~~~~-0~~~~~~~~~~~~-0~~~~~~~~~~~~-|

Bridge3:
e|-------0-------------0-------------0-------------7-------|
b|-----7---7---------6---6---------5---5---------7---7-----|
G|---7-------7-----7-------7-----6-------6-----7-------7---|
D|-9-----------9-9-----------9-8-----------8-9-----------9-|	(guitar1)
A|---------------------------------------------------------|
E|---------------------------------------------------------|
B|---------------------------------------------------------|

e|---------------------------------------------------------|
b|---------------------------------------------------------|
G|---------------------------------------------------------|
D|-----------------------------4~~~~~~~~~~~~---------------|	(guitar2)
A|-2~~~~~~~~~~~~-5~~~~~~~~~~~~-4~~~~~~~~~~~~-2~~~~~~~~~~~~-|
E|-2~~~~~~~~~~~~-5~~~~~~~~~~~~-2~~~~~~~~~~~~-2~~~~~~~~~~~~-|
B|-0~~~~~~~~~~~~-3~~~~~~~~~~~~---------------0~~~~~~~~~~~~-|

Bridge4:
e|------------------|
b|------------------|
G|------------------|
D|------------------|
A|------------------|
E|-22------22-22-22-|
B|-00-4100-00-00-00-|
      ....           .palm mute

Chorus:(guitar1 & guitar2)
e|---------------------------------|
b|---------------------------------|
G|---------------------------------|
D|-2-2-222-5-5-555-5-5-555-7-7-777-|
A|-2-2-222-5-5-555-5-5-555-7-7-777-|
E|-0-0-000-3-3-333-3-3-333-5-5-555-|
B|-0-0-000-3-3-333-3-3-333-5-5-555-|

e|----------------------------------|
b|----------------------------------|
G|----------------------------------|
D|-2-2-222-5-5-555-5-5-555-7-7-7/99-|
A|-2-2-222-5-5-555-5-5-555-7-7-7/99-|
E|-0-0-000-3-3-333-3-3-333-5-5-5/77-|
B|-0-0-000-3-3-333-3-3-333-5-5-5/77-|

e|---------------------------------|
b|---------------------------------|
G|---------------------------------|
D|-2-2-222-5-5-555-5-5-555-7-7-777-|
A|-2-2-222-5-5-555-5-5-555-7-7-777-|
E|-0-0-000-3-3-333-3-3-333-5-5-555-|
B|-0-0-000-3-3-333-3-3-333-5-5-555-|

e|---------------------------------|
b|---------------------------------|
G|---------------------------------|
D|-2-2-222-5-5-555-----------------|
A|-2-2-222-5-5-555-3-3-333-5-5-555-|
E|-0-0-000-3-3-333-3-3-333-5-5-555-|
B|-0-0-000-3-3-333-1-1-111-3-3-333-|

Pre-Verse:
e|--------------------------------------------------------------------------------------------------|
b|--------------------------------------------------------------------------------------------------|
G|--------------------------------------------------------------------------------------------------|
D|----------------------------------------------------------------------------2---1-----------3---2-|	(guitar1)
A|--------------------------------------------------------------------3---2-----------4---3---------|
E|------------------32-------------------32-------------------32------------------------------------|
B|-01-00-0-4--01-00---54-01-00-0-4-01-00---54-01-00-0-4-01-00---54--1---1---1---1---2---2---2---2---|
  .. .. .    .. .. .... .. .. .   .. .. .... .. .. . . .. .. ....  .   .   .   .   .   . 
 .   .     .palm mute

e|--------------------------------------------------------------------------------------------------|
b|--------------------------------------------------------------------------------------------------|
G|----------------------------------------------------------------------------1---0-----------2---1-|
D|--------------------------------------------------------------------2---1-----------3---2---------|	(guitar2)
A|--------------------------------------------------------------------------------------------------|
E|------------------32-------------------32-------------------32------------------------------------|
B|-01-00-0-4--01-00---54-01-00-0-4-01-00---54-01-00-0-4-01-00---54--1---1---1---1---2---2---2---2---|
  .. .. .    .. .. .... .. .. .   .. .. .... .. .. . . .. .. ....  .   .   .   .   .   . 
 .   .     .palm mute

Outro:
e|---------------------------------------------------------|
b|---------------------------------------------------------|
G|---------------------------------------------------------|
D|---------------------------------------------------------|
A|-2~~~~~~~~~~~~-2~~~~~~~~~~~~-2~~~~~~~~~~~~-2~~~~~~~~~~~~-|
E|-2~~~~~~~~~~~~-2~~~~~~~~~~~~-2~~~~~~~~~~~~-2~~~~~~~~~~~~-|
B|-0~~~~~~~~~~~~-0~~~~~~~~~~~~-0~~~~~~~~~~~~-0~~~~~~~~~~~~-|
Related for Darkness Fills The Sky tab