Song name
# A B C D E F G H I J K L M N O P Q R S T U V W X Y Z

Symposium - Killing Positon tab

Help us improve GuitareTab! Take a short survey!
Tabbed by Adam Cleminson (thelatestplaque@hotmail.com)
Dropped D Tuning

|----------------------------------|
|----------------------------------|
|----------------------------------|
|----------------------------------|
|----------------------------------|
|-0-0-0-15-0-0-15-0-0-0-15-0-0-----|

|----------------------------------|
|----------------------------------|
|-5-5-5-3-3-3----------------------|
|-x-x-x-x-x-x----------------------|
|-3-3-3-1-1-1-3-3-3-5-5-5----------|
|-------------3-3-3-5-5-5----------|(x2)

__________________________________________


|----------------------------------|
|----------------------------------|
|----------------------------------|
|----------------------------------|
|----------------------------------|
|-0-0-0-15-0-0-15-0-0-0-15-0-0-----|

|------------------------------------|
|------------------------------------|
|-5-5-5-3-3-3------------------------|
|-x-x-x-x-x-x------------------------|
|-3-3-3-1-1-1-3-5-5-3-5-5-3-5--------|
|-------------3-5-5-3-5-5-3-5--------|(x1)

___________________________________________


|----------------------------------|
|----------------------------------|
|----------------------------------|
|----------------------------------|
|----------------------------------|
|-0-0-0-15-0-0-15-0-0-0-15-0-0-----|

|----------------------------------|
|----------------------------------|
|-5-5-5-3-3-3----------------------|
|-x-x-x-x-x-x----------------------|
|-3-3-3-1-1-1-3-3-3--5--5----------|
|-------------3-3-3--5--5----------|(x1)
Related for Killing Positon tab