Song name
# A B C D E F G H I J K L M N O P Q R S T U V W X Y Z

Synergia - Tiri Ze Ani tab

hi I'm Amir Igra' and i play 2 years - tabbed it out from hearing

   D                           G                  Bm
e-----------------------------------------------------------------5-7-5|
b----5H7--------7---5-7-5h7p5/3--------3-3-3-----------5H7-5-----------|
g----7-----7-7-7-7--------------------0-00-0---------7-----------------|
d---7-------------------------------0----0-0--------9-------9-9--------|
a--------------------------------------------------9-------------------|
D--0-----------------------------5-------------------------------------|

  A
e ---------------------------|
b ------3-3--2-2-3-3---------|
g -----2-----2-2-----------7-|
d ----2------2-2------4-5-7--|
a -0-------------------------|
E ---------------------------|

h = hammer
/ = slide
Tap to rate this tab
# A B C D E F G H I J K L M N O P Q R S T U V W X Y Z