Synergia - Believe Taamin chords

capo on 2nd fret
(strumming and beats won't be written)
tabs on () are optional, you can play it and you can not to

Intro, outro and chorus:
E:-|---3-------------3------------3---------2---------|
B:-|---3-------------3------------0---------3---------|
G:-|---0(1st chord)--0(2nd)-------0(3rd)----2(last)---|
D:-|---2-------------0------------0---------0---------|
A:-|--(2)-----------(2)----------(2)------------------|
E:-|----------------(3)----------(3)------------------|

Verse (both 1st and 2nd):
E:-|--(3)------------------------(3)-------(3)-------(3)-------|
B:-|--(0)------------------------(3)--------3---------0--------|
G:-|---0(1st)---------------------0(2nd)----0(3rd)----0(last)--|
D:-|---0--------------------------2---------0---------0--------|
A:-|---2(to the whole 1st line)---2---------2---------2--------|
E:-|---3--------------------------0---------3---------3--------|

Pre-chorus:
E:-|--3---------3-----------2---------|
B:-|--3---------0-----------3---------|
G:-|--0(1st)----0(2nd)------2(last)---|
D:-|--0---------0-----------0---------|
A:-|--2---------2---------------------|
E:-|-(3)-------(3)--------------------|

Bridge:
E:-|----3--------3---------3---------3---------3---|
B:-|----3--------3---------1---------3---------3---|
G:-|----0(1st)---2(2nd)----2(3rd)----2(4th)----0---|
D:-|----0--------0---------0---------0---------0---|
A:-|----2--------------------------------------2---|
E:-|---(3)------------------------------------(3)--|


Verse, chorus& Pre-chorus chords return twice
Intro& bridge chords return twice and then twice again aith a different strumming pattern
Outro returns alot of times, just play along with the track and memorise the repeats
Also the outro has 3 chords in the end, just improvise from the chords that are given 
for the whole outro on different order
Tap to rate this tab
 
# A B C D E F G H I J K L M N O P Q R S T U V W X Y Z