Song name
# A B C D E F G H I J K L M N O P Q R S T U V W X Y Z

Synthetic Banana - The Untitled tab

Help us improve GuitareTab! Take a short survey!
t. See http://www.olga.net/faq/ for more information.                     #
#-----------------------------------------------------------------------------#

From: "Terence Smith" 
Subject: s/synthetic_banana/the_untitled.crd
Date: Sun, 12 Sep 1999 16:42:19 +0100

THE UNTITLED
Synthetic Banana

Music by Oliver Kidd Lyrics by Oliver Kidd
Tabbed by Pete Smith

INTRO
Play verse, chorus

VERSE
Let all the notes ring out except the last A#m
If you want, you can add a little picking between notes. It doesn't =
matter which strings,

E---3---3---5---5---4---4---6---6---|
B---3---3---5---5---4---4---6---6---|
G---3---3---5---5---4---4---6---6---|
D---5---5---7---7---6---6---8---8---|
A---5---5---7---7---6---6---8---8---|
E---3---3---5---5---4---4---6---6---|
                                *  (* =3D play 16x)

CHORUS

E---7---3---5---(4---4---6---6)------------------4---4-->
B---7---3---5---(4---4---6---6)-Play this then---4---4-->
G---7---3---5---(4---4---6---6)-repeat with this-4---4-->
D---9---5---7---(6---6---8---8)-instead of the---6---6-->
A---9---5---7---(6---6---8---8)-brackets---------6---6-->
E---7---3---5---(4---4---6---6)------------------4---4-->
    *   *   *                           (* =3D play 8x)

E---6---5------5---|
B---6---5------5---|
G---6---5------5---|
D---8---7------7---|
A---8---7------7---|
E---6---5------5---|

SOLO
Play verse, chorus

CHORUS

E---7---3---5---(4---4---6---6)------------------4---4-->
B---7---3---5---(4---4---6---6)-Play this then---4---4-->
G---7---3---5---(4---4---6---6)-repeat with this-4---4-->
D---9---5---7---(6---6---8---8)-instead of the---6---6-->
A---9---5---7---(6---6---8---8)-brackets---------6---6-->
E---7---3---5---(4---4---6---6)------------------4---4-->
    *   *   *                           (* =3D play 8x)

E---6---5------5---|
B---6---5------5---|
G---6---5------5---|
D---8---7------7---|
A---8---7------7---|
E---6---5------5---|

CHORUS

E---7---3---5---(4---4---6---6)------------------4---4-->
B---7---3---5---(4---4---6---6)-Play this then---4---4-->
G---7---3---5---(4---4---6---6)-repeat with this-4---4-->
D---9---5---7---(6---6---8---8)-instead of the---6---6-->
A---9---5---7---(6---6---8---8)-brackets---------6---6-->
E---7---3---5---(4---4---6---6)------------------4---4-->
    *   *   *                           (* =3D play 8x)

E---6---5------5---|
B---6---5------5---|
G---6---5------5---|
D---8---7------7---|
A---8---7------7---|
E---6---5------5---|
Related for The Untitled tab