Song name
# A B C D E F G H I J K L M N O P Q R S T U V W X Y Z

System Of A Down - Dammit Acoustic tab

okay. a year back or so, my friend showed me this acoustic cover that system of a down
and it was blink-182's dammit. it was the tits! but i have no idea where this song came
anyway, it was one of the greatest covers i have heard unplugged, so i had to tab it 
i think it's on youtube if you need to listen to it.
----------------------------------------------------------------------------
Song: Dammit (Acoustic)
Artist: System Of A Down
Album: ???
Tuning: Standard
Finger Picking

Guitar 1:
   C           G           Am          F
E|--------------------------------------------------|
B|--1-----------------------1-----------1------1----|
G|----0----0----0-------------2----2------2-0h2-----|
D|------0h2-------0----0--------0h2-----3-------3---|
A|--3-------3-------0h2-----0-------0---------------|
E|--------------3-------3---------------------------|


Guitar 2:
E|--8-----------7------10---8-----------5-----------|
B|---------8------------------------8---------------|
G|--------------------------------------------------|
D|--------------------------------------------------|
A|--------------------------------------------------|
E|--------------------------------------------------|


Verse 1: (x4)
 C             G           Am          F
E|--------------------------------------------------|
B|--1-----------------------1-----------1------1----|
G|----0----0----0-------------2----2------2-0h2-----|
D|------0h2-------0----0--------0h2-----3-------3---|
A|--3-------3-------0h2-----0-------0---------------|
E|--------------3-------3---------------------------|
"It's alright..."


Chorus:
E|------8-----------3-----------5-----------1-------|
B|----8-----------3-----------5---------------------|
G|--------------------------4-------------2---------|
D|--------------------------------------------------|
A|--------------------------------------------------|
E|--8-----------3-----------5-----------1-----------|
"And it'll happen..."

E|------8-----------3-----------5-------------------|
B|----8-----------3-----------5---------------------|
G|--------------------------4-----------------------|
D|--------------------------------------------------|
A|----------------------------------------3---------|
E|--8-----------3-----------5-----------1-----------|
"But everybody's..."


Verse 2: (x4)
 C             G           Am          F
E|--------------------------------------------------|
B|--1-----------------------1-----------1------1----|
G|----0----0----0-------------2----2------2-0h2-----|
D|------0h2-------0----0--------0h2-----3-------3---|
A|--3-------3-------0h2-----0-------0---------------|
E|--------------3-------3---------------------------|
"And maybe I'll..."


Chorus:
E|------8-----------3-----------5-----------1-------|
B|----8-----------3-----------5---------------------|
G|--------------------------4-------------2---------|
D|--------------------------------------------------|
A|--------------------------------------------------|
E|--8-----------3-----------5-----------1-----------|
"And it'll happen..."

E|------8-----------3-----------5-------------------|
B|----8-----------3-----------5---------------------|
G|--------------------------4-----------------------|
D|--------------------------------------------------|
A|----------------------------------------3---------|
E|--8-----------3-----------5-----------1-----------|
"But everybody's..."

Outro
Guitar 1:
 C 	       G	   Am          F
E|--------------------------------------------------|
B|--1-----------------------1-----------1------1----|
G|----0----0----0-------------2----2------2-0h2-----|
D|------0h2-------0----0--------0h2-----3-------3---|
A|--3-------3-------0h2-----0-------0---------------|
E|--------------3-------3---------------------------|


----------------------------------------------------------------------------
there ya go. once you get the hang of it, it's a pretty easy song.
Tap to rate this tab
# A B C D E F G H I J K L M N O P Q R S T U V W X Y Z