Song name
# A B C D E F G H I J K L M N O P Q R S T U V W X Y Z

System Of A Down - Sartarabad tab

Tabbed by:syskordis    
detonator58@gmail.com
------------------------------------------------------------------------
                          SARTARABAD
                      System of a Down
------------------------------------------------------------------------

|-12-------------------------------------|
|---12------10-9-10-12---13-15--13-12-13-|
|----------------------------------------|
|----------------------------------------|
|----------------------------------------|
|----------------------------------------|


|-0-000--3222-3-320-7-777--5323-555-|
|-----------------------------------|
|-----------------------------------|
|-----------------------------------|
|-----------------------------------|
|-----------------------------------|


|-7-777-1075323-5753202-555-3202-3-320-|
|--------------------------------------|
|--------------------------------------|
|--------------------------------------|
|--------------------------------------|
|--------------------------------------|


|-0-000-3202-3-320-7-777-5323-5-5-5555555-71075323-5753203-5555-32023-3320-|
|--------------------------------------------------------------------------|
|--------------------------------------------------------------------------|
|--------------------------------------------------------------------------|
|--------------------------------------------------------------------------|
|--------------------------------------------------------------------------|


|-0-000-3-0-3-8-7-8-10--33-10-8-7-5--10-8-7-5-3--5--0-5-3-2-3-|
|-------------------------------------------------------------|
|-------------------------------------------------------------|
|-------------------------------------------------------------|
|-------------------------------------------------------------|
|-------------------------------------------------------------|


|----3---3-7-5-7-10----10-8-7-5-10-8-7-5-3--5--0-5-3-2-3-|
|-33---3------------33-----------------------------------|
|--------------------------------------------------------|
|--------------------------------------------------------|
|--------------------------------------------------------|
|--------------------------------------------------------|

Tap to rate this tab
# A B C D E F G H I J K L M N O P Q R S T U V W X Y Z