Song name
# A B C D E F G H I J K L M N O P Q R S T U V W X Y Z

System Of A Down - Spiders Acoustic tab

I made this tab because I have to play this song at a bookstore soon, and I thought 
I've been practicing it I could just make the tab. It's very similar to the original but a 
notes are switched, Please tell me if you have any problems.
It's in drop C by the way              H- Hammer-on
                                       V- down strum
                                       ^- up strum

Verse 1
D--------------------------------------------------------------------|
A--------------------------------------------------------------------|
F--------------------------------------------------------------------|
C--------------------------------------------------------------------|
G----7---7--5-5-5----7---7--5-5-5----8---7---10---8---7H8-7-7-5-5-5--|
C--0---0---0-0-0-0-0---0---0-0-0-0-0---0---0----0---0----0-0-0-0-0-0-|

You Play Verse 1, 3 times.
After the third time you play Chorus 1, 2 times

D-------------------------------------------------------------------|
A-------------------------------------------------------------------|
F-------------------------------------------------------------------|
C-10-10-10-10-10-10-10-(10)10(10)10---------------------------------|
G-10-10-10-10-10-10-10-(10)10(10)10---8-7-10-8-7H8-7-7-5-5-5--------|
C-10-10-10-10-10-10-10-(10)10(10)10--0-0-0--0-0---0-0-0-0-0-0-------|
  V  V  V  ^  V  ^  V    ^  V  ^  V
                        *Fast*

It's pretty much repeated after that. There is no solo of course because it is acoustic. 
can see that it is really similar to the electric version but a little different, by 
way you should play the first verse softer than the other verses, until the end.
Tap to rate this tab
# A B C D E F G H I J K L M N O P Q R S T U V W X Y Z