Song name
# A B C D E F G H I J K L M N O P Q R S T U V W X Y Z

System Of A Down - La Isla Bonita tab

Help us improve GuitareTab! Take a short survey!
D|-----------------------------------------------------------|
A|-----------------------------------------------------------|
F|-----------------------9-------------------------7---------|
C|----------7---------9-----9-0-------5---------7-----7-0----|
G|-------7-----7-0-7---------------5-----5-0-5---------------|
C|----7-------------------------5----------------------------|

D|-----------------------------------------------------------|
A|-----------------------------------------------------------|
F|----------5------------------------------------------------|
C|-------5-----5-0-------2------------5------------3---------|
G|----3---------------2-----2-0----5-----5-0----3-----3-0----|
C|-----------------2------------5------------3---------------|
Related for La Isla Bonita tab