Song name
# A B C D E F G H I J K L M N O P Q R S T U V W X Y Z

System Of A Down - Sultans Of Swing tab

Band- System Of A Down
Song- Sultans Of Swing

1x
C-----------------|-----------------|-----------------|-----------------|
G-5-5-5-5-5-5-5-5-|-3-3-3-3-3-3-3-3-|-1-1-1-1-1-1-1-1-|-0-0-0-0-0-0-0-0-|
C--7-7-7-7-7-7-7-7|--5-5-5-5-5-5-5-5|--3-3-3-3-3-3-3-3|--2-2-2-2-2-2-2-2|
F-----------------|-----------------|-----------------|-----------------|
A-----------------|-----------------|-----------------|-----------------|
D-----------------|-----------------|-----------------|-----------------|

2x
C-------------------------------------|
G-5-5-5-5-5--3-3--1-1-0-0-0-0-0-0-0-0-|
C--7-7-7-7-7--5-5--3---2-2-2-2-2-2-2-2|
F-------------------------------------|
A-------------------------------------|
D-------------------------------------|

C-3-3-3-3-3-3-3-3--|----------------------------------------------------|
G--3-3-3-3-3-3-3-3-|-3-3-3-3-3-3-3-3--1-1-1-1-1-1-1-1--0-0-0-0-0-0-0-0--|
C------------------|--5-5-5-5-5-5-5-5--3-3-3-3-3-3-3-3--2-2-2-2-2-2-2-2-|
F------------------|----------------------------------------------------|
A------------------|----------------------------------------------------|
D------------------|----------------------------------------------------|

2x
C-------------------------------------|
G-5-5-5-5-5--3-3--1-1-0-0-0-0-0-0-0-0-|
C--7-7-7-7-7--5-5--3---2-2-2-2-2-2-2-2|
F-------------------------------------|
A-------------------------------------|
D-------------------------------------|

C-------------------------------------------------------|
G-5-5-5-5-5-5-51-1-1-1-1-1-1-5-53-3-3-3-3-3-3-3-3-3-3-3|
C-------------------------------------------------------|
F-------------------------------------------------------|
A-------------------------------------------------------|
D-------------------------------------------------------|
Tap to rate this tab
# A B C D E F G H I J K L M N O P Q R S T U V W X Y Z