Song name
# A B C D E F G H I J K L M N O P Q R S T U V W X Y Z

System Of A Down - Defy You tab

............................................................................
                      Desecrate-System Of A Down
............................................................................

Tuning: CGCFAd
pm: palm-mute    

Intro
|-------------|
|-------------|
|-------------|
|-------------|
|-7--8--10--8-|
|-7--8--10--8-|

pm.................................
|----------------------------------|
|----------------------------------|
|----------------------------------|
|----------------------------------|
|----------------------------------|
|-7-7-0-0-7-7-0-0-10-10-0-0-8-8-0-0|

pm...........................
|-------------------------------|
|-------------------------------|
|-------------------------------|
|-------------------------------|
|-------------------------------|
|-7-7-0-0-7-7-0-0-10-10-0-0-8~~~|

pm.................................
|----------------------------------|-------------|
|----------------------------------|-------------|
|----------------------------------|-------------|
|----------------------------------|-------------|
|----------------------------------|-7--8--10--8-|
|-7-7-0-0-7-7-0-0-10-10-0-0-8-8-0-0|-7--8--10--8-|

 Pre-verse
|--------------| The notes are 
|--------------| harmonics
|--------7---7-|
|-7---7--------|
|---5------5---|
|--------------|

 Verse
|-----------------------------| The notes are
|-----------------------------| harmonics
|--------777777--------777777-|
|-666666--------666666--------|
|-----------------------------|
|-----------------------------|

|-------------|
|-------------|
|-------------|
|-------------|
|-7--8--10--8-|
|-7--8--10--8-|

 Chorus
pm.................................
|----------------------------------|-------------|
|----------------------------------|-------------|
|----------------------------------|-------------|
|----------------------------------|-------------|
|----------------------------------|-7--8--10--8-|
|-7-7-0-0-7-7-0-0-10-10-0-0-8-8-0-0|-7--8--10--8-|

pm..............................
|-------------------------------|-------------|
|-------------------------------|-------------|
|-------------------------------|-------------|
|-------------------------------|-------------|
|-------------------------------|-7--8--10--8-|
|-7-7-0-0-7-7-0-0-10-10-0-0-8~~~|-7--8--10--8-|

Pre-verse

Verse

Chorus

Pre-verse


|-----------------------|-------------| The notes are
|-----------------------|-------------| harmonics
|-----7--7-7-----7--7-7-|-----------7-|
|-----------------------|----7--------|
|-6-6--------6-6--------|5-5----5-5---|
|-----------------------|-------------|

Pre-verse

Chorus x2

Pre-verse

                            End

This song is very simple. 
Tap to rate this tab
 
# A B C D E F G H I J K L M N O P Q R S T U V W X Y Z