Song name
# A B C D E F G H I J K L M N O P Q R S T U V W X Y Z

System Of A Down - Im Nazelis tab

   ____________________
  / System of a Down  /
 / Im Nazelis        /
/___________________/

This song is a 30 year old armenian song, but I couldn't track the name of the
original composer. This song has only been played by Daron live a few occasions,
and you can only find some bad footages of it. Anyway, I transcribed it the best
I could, hope you can use it! :)
"Im Nazelis" means "My Nazelis". Nazelis is a common Armenian girl's name.
You can find the rest of the translation after the tab.


Tuning: Drop C  (C G C F A D)
Timing: 6/8

 Intro:
  Cm            Cm            Bb            Bb
|-------1-----|-------1-----|-------------|-------------|
|-----3---3---|-----3---3---|-------1-----|-------1-----|
|---2-------2-|---2-------2-|-----0---0---|-----0---0---|
|-0-----------|-0-----------|---2-------2-|---2-------2-|
|-------------|-------------|-3-----------|-3-----------|
|-------------|-------------|-------------|-------------|


 Refrain:
    Cm            Bb            Ab            Bb
||--------1-----|-------------|-------------|-------------|
||o-----3---3---|-------1-----|-------3-----|-------1-----|
||----2-------2-|-----0---0---|-----3---3---|-----0---0---|
||--0-----------|---2-------2-|---3-------3-|---2-------2-|
||o-------------|-3-----------|-1-----------|-3-----------|
||--------------|-------------|-------------|-------------|

   Ab            Fm    Gm
 |-------------|--------------||
 |-------3-----|-------------o||
 |-----3---3---|-----------2--||
 |---3-------3-|-----5---2----||
 |-1-----------|---5---0-----o||
 |-------------|-5------------||


 Interlude:
  Cm            Bb            Cm            Bb
|-------1-----|-------------|-------1-----|-------------|
|-----3---3---|-------1-----|-----3---3---|-------1-----|
|---2-------2-|-----0---0---|---2-------2-|-----0---0---|
|-0-----------|---2-------2-|-0-----------|---2-------2-|
|-------------|-3-----------|-------------|-3-----------|
|-------------|-------------|-------------|-------------|


 Verse:
    Cm            Bb            Cm            Bb
||--------1-----|-------------|-------1-----|--------------||
||o-----3---3---|-------1-----|-----3---3---|-------1-----o||
||----2-------2-|-----0---0---|---2-------2-|-----0---0----||
||--0-----------|---2-------2-|-0-----------|---2-------2--||
||o-------------|-3-----------|-------------|-3-----------o||
||--------------|-------------|-------------|--------------||

    Ab            Ab            Ab    G5
||--------------|-------------|--------------||
||o-------3-----|-------3-----|-------------o||
||------3---3---|-----3---3---|-----3-----2--||
||----3-------3-|---3-------3-|---3-----2----||
||o-1-----------|-1-----------|-1-----0-----o||
||--------------|-------------|--------------||


 Refrain:
similar to previous



[translation]
--------------------------------------------------------------------------------
Everyday, I call for you, my love 
For days, I still call for you, my Nazeli 
Everyday I remember you my love 
For days, I call for you, my Nazeli 

Come fast, I can't make it anymore without you 
All my life I've suffered so come fast 
By waiting my hair has gotten whiter 
Without you I have no life 
So come fast 

Everyday I remember you my love 
For days, I call for you, my Nazeli 
Everyday I remember you my love 
For days, I call for you, my Nazeli



Jon Sebastian Frederiksen - 4th /June /09
Just mail me at Maitinin@gmail.com with questions, comments and corrections!
Tap to rate this tab
 
# A B C D E F G H I J K L M N O P Q R S T U V W X Y Z