Song name
# A B C D E F G H I J K L M N O P Q R S T U V W X Y Z

System Of A Down - Shame On A Nigga tab

Riff A
D|-10--10----10----10-11-|
A|--------10----10-------|
F|-----------------------|
C|-----------------------|
G|-----------------------|
C|-----------------------|

Riff B
|-------------------|
|-------------------|
|-------------------|
|-00000-------------|
|-00000-------------|
|-00000-------------|
  .....

Riff B2
|-------|
|-------|
|-------|
|-00000-|
|-00000-|
|-00000-|
  .....
This one fits in the blank spot in riff b

Riff C
|-10--10--10--10-11-|
|-10--10--10--10-11-|
|-------------------|
|-------------------|
|-------------------|
|-------------------|

Riff D
|--------------|
|--------------|
|-0--0--0--0-1-|
|-0--0--0--0-1-|
|-0--0--0--0-1-|

Riff E
|------------------------------------------------------------------|
|------------------------------------------------------------------|
|------------------------------------------------------------------|
|-0000000000000000111111111111111133333333333333335555555555555555-|
|------------------------------------------------------------------|
|------------------------------------------------------------------|


Riff A x12
Riff B x8
Riff C x4
Riff A x4
Riff D x4
Riff B x7
Riff B2x1
Riff D x3
Riff E x2 (gradually release p.m. thru 2nd time)
Riff D x8
Riff D x4 (double speed)


that's all of the song pretty much.
Tap to rate this tab
# A B C D E F G H I J K L M N O P Q R S T U V W X Y Z