Song name
# A B C D E F G H I J K L M N O P Q R S T U V W X Y Z

System Of A Down - Shame On A Nigga tab

Band: System of a Down
Song: Shame on a Nigga

Tabbed by Robert  (Austria)

0:00 - 0:09

Lead Gitarre:
-8-8---8---8-9-8-8---8----8-9-8-8---8----8-9-8-8---8---8-9-|
-----8---8---------8---8----------8---8----------8---8-----|
-----------------------------------------------------------|
-----------------------------------------------------------|
-----------------------------------------------------------|
-----------------------------------------------------------|

Rythm. Gitarre:
-----------------------------------------------------------|
-----------------------------------------------------------|
-----------------------------------------------------------|
-----------------------------------------------------------|
-----------------------------------------------------------|
-----------------------------------------------------------|

0:10 - 0:23

Lead Gitarre:
-8-8---8---8-9-8-8---8----8-9-8-8---8----8-9-8/8---8---8-9-|
-----8---8---------8---8----------8---8-------/--8---8-----|
----------------------------------------------/------------|
----------------------------------------------/------------|    x2/x1
----------------------------------------------/------------|
----------------------------------------------/------------|

Rythm. Gitarre:
-------------------------------------------------/---------|
-------------------------------------------------/---------|
-------------------------------------------------/---------|
-0-1-0-0-0------0-0-0-0-0-------0-1-0-0-0------0-/-0-0-0-0-|    x2/x1
-0-1-0-0-0------0-0-0-0-0-------0-1-0-0-0------0-/-0-0-0-0-|
-0-1-0-0-0------0-0-0-0-0-------0-1-0-0-0------0-/-0-0-0-0-|

0:24 - 0:40

Lead Gitarre:
-----------------------------------------------------------|
-----------------------------------------------------------|
-----------------------------------------------------------|
-0-0-0-0-0-------0-1-0-0-0-------0-0-0-0-0-------0-1-0-0-0-|    x2
-0-0-0-0-0-------0-1-0-0-0-------0-0-0-0-0-------0-1-0-0-0-|
-0-0-0-0-0-------0-1-0-0-0-------0-0-0-0-0-------0-1-0-0-0-|

Rythm. Gitarre:
-----------------------------------------------------------|
-----------------------------------------------------------|
-----------------------------------------------------------|
-0-0-0-0-0-------0-1-0-0-0-------0-0-0-0-0-------0-1-0-0-0-|    x2
-0-0-0-0-0-------0-1-0-0-0-------0-0-0-0-0-------0-1-0-0-0-|
-0-0-0-0-0-------0-1-0-0-0-------0-0-0-0-0-------0-1-0-0-0-|

0:41 - 0:58

Lead Gitarre:
--8---8---8---8---9--        --8---8---8---8--9--|
--8---8---8---8---8--        ----8---8---8-------|
---------------------        --------------------|
---------------------   x4   --------------------|   x4
---------------------        --------------------|
---------------------        --------------------|

Rythm. Gitarre:
-----------------------------------------------------------|
-----------------------------------------------------------|
-----------------------------------------------------------|
-----------------------------------------------------------|
-----------------------------------------------------------|
-----------------------------------------------------------|

0:59 - 1:14

Lead Gitarre:
-----------------------------------------------------------|
-----------------------------------------------------------|
-----------------------------------------------------------|
--0--1--3--1--0--0--0--0--1--0--1--3--1--0--0--0--0--1-----|    x2
--0--1--3--1--0--0--0--0--1--0--1--3--1--0--0--0--0--1-----|
--0--1--3--1--0--0--0--0--1--0--1--3--1--0--0--0--0--1-----|

Rythm Gitarre:
-----------------------------------------------------------|
-----------------------------------------------------------|
-----------------------------------------------------------|
--0--1--3--1--0--0--0--0--1--0--1--3--1--0--0--0--0--1-----|    x2
--0--1--3--1--0--0--0--0--1--0--1--3--1--0--0--0--0--1-----|
--0--1--3--1--0--0--0--0--1--0--1--3--1--0--0--0--0--1-----|

1:15 - 1:29

Lead Gitarre:
-----------------------------------------------------------|
-----------------------------------------------------------|
-----------------------------------------------------------|
-0-0-0-0-0-------0-1-0-0-0-------0-0-0-0-0-------0-1-0-0-0-|    x2
-0-0-0-0-0-------0-1-0-0-0-------0-0-0-0-0-------0-1-0-0-0-|
-0-0-0-0-0-------0-1-0-0-0-------0-0-0-0-0-------0-1-0-0-0-|

Rythm. Gitarre:
-----------------------------------------------------------|
-----------------------------------------------------------|
-----------------------------------------------------------|
-0-0-0-0-0-------0-1-0-0-0-------0-0-0-0-0-------0-1-0-0-0-|    x2
-0-0-0-0-0-------0-1-0-0-0-------0-0-0-0-0-------0-1-0-0-0-|
-0-0-0-0-0-------0-1-0-0-0-------0-0-0-0-0-------0-1-0-0-0-|

1:30 - 1:43

Lead Gitarre:
-------------------------------------------/---------------|
-------------------------------------------/---------------|
-------------------------------------------/---------------|
--0--1--3--1--0--0--0--0--1--0--1--3--1--0-/-0--0--0--1----|    x2/x1
--0--1--3--1--0--0--0--0--1--0--1--3--1--0-/-0--0--0--1----|
--0--1--3--1--0--0--0--0--1--0--1--3--1--0-/-0--0--0--1----|

Rythm Gitarre:
-------------------------------------------/---------------|
-------------------------------------------/---------------|
-------------------------------------------/---------------|
--0--1--3--1--0--0--0--0--1--0--1--3--1--0-/-0--0--0--1----|    x2/x1
--0--1--3--1--0--0--0--0--1--0--1--3--1--0-/-0--0--0--1----|
--0--1--3--1--0--0--0--0--1--0--1--3--1--0-/-0--0--0--1----|

2:00-2:16

Lead Gitarre:
-------------------------------------------------------------------|
-------------------------------------------------------------------|
-------------------------------------------------------------------|
-12-12-12-12(x4)-13-13-13-13(x4)-15-15-15-15(x4)-17-17-17-17(x4)---|  x2
-12-12-12-12(x4)-13-13-13-13(x4)-15-15-15-15(x4)-17-17-17-1--------|7(x4)
-12-12-12-12(x4)-13-13-13-13(x4)-15-15-15-15(x4)-17-17-17-1--------|7(x4)

Rythm. Gitarre:
---------------------------------------------------|
---------------------------------------------------|
---------------------------------------------------|
---------------------------------------------------|   x2
-0-0-0-0(x4)-1-1-1-1(x4)-3-3-3-3(x4)-5-5-5-5(x4)---|
---------------------------------------------------|

2:17 - 2:30

Lead Gitarre:
-----------------------------------------------------------|
-----------------------------------------------------------|
-----------------------------------------------------------|
--0--1--3--1--0--0--0--0--1--0--1--3--1--0--0--0--0--1-----|    x2
--0--1--3--1--0--0--0--0--1--0--1--3--1--0--0--0--0--1-----|
--0--1--3--1--0--0--0--0--1--0--1--3--1--0--0--0--0--1-----|

Rythm Gitarre:
-----------------------------------------------------------|
-----------------------------------------------------------|
-----------------------------------------------------------|
--0--1--3--1--0--0--0--0--1--0--1--3--1--0--0--0--0--1-----|    x2
--0--1--3--1--0--0--0--0--1--0--1--3--1--0--0--0--0--1-----|
--0--1--3--1--0--0--0--0--1--0--1--3--1--0--0--0--0--1-----|

2:31-2:40

Lead Gitarre:
-----------------------------------------        -----|
-----------------------------------------        -----|
-----------------------------------------        -----|
-0000000000000000-1-0000000000000000-1---   x4   --0--|
-0000000000000000-1-0000000000000000-1---        --0--|
-0000000000000000-1-0000000000000000-1---        --0--|

Rythm. Gitarre:
-----------------------------------------        -----|
-----------------------------------------        -----|
-----------------------------------------        -----|
-0000000000000000-1-0000000000000000-1---   x4   --0--|
-0000000000000000-1-0000000000000000-1---        --0--|
-0000000000000000-1-0000000000000000-1---        --0--|
Tap to rate this tab
# A B C D E F G H I J K L M N O P Q R S T U V W X Y Z