Song name
# A B C D E F G H I J K L M N O P Q R S T U V W X Y Z

System Of A Down - La Isla Bonita tab

THIS AN ACCURATE TAB OF DARON MALAKIAN'S
(THE LEAD GUITARIST/VOCALIST) OF MODONNA'S
 "LA ISLA BONITA". THE TUNING IS DROP C (CGCFAD).
THIS REINDITION IS AWESOME, SO THERE FOR YOU'RE
AWESOME FOR LOOKING THIS UP. ENJOY!!

D---------------------------------------------------|
A---------------------------------------------------|
F-------------------9-9----------------------7-7----|
C------7-7--------9----9---------5-5-------7-----7--|
G----7----7-----7-------------5----5-----5----------|
C--7------------------------5-----------------------|


D----------------------------------------------------|
A----------------------------------------------------|
F------5-5-------------------------------------------|
C----5-----5---------2-2----------4-4----------3-3---|
G--3---------------2-----2------5-----5------3-----3-|
C----------------2------------5------------3---------|


~~PEACE~~


TABBED BY: PHILLIP "PONTELLI" GLOVER
Tap to rate this tab
# A B C D E F G H I J K L M N O P Q R S T U V W X Y Z