Song name
# A B C D E F G H I J K L M N O P Q R S T U V W X Y Z

System Of A Down - Forest tab

Song: Forest
Artist: System of a Down
Album: Toxicity
Tab By: Aloys MARIE

Tuning: Drop C (C,G,C,F,A,D)


INTRO:
|--------------------------------------------------------------------|
|--------------------------------------------------------------------|
|-6-66666666666666-7-777-777-777-77-8-8888888888888-9-999-9999999999-|
|-4-44444444444444-5-555-555-555-55-6-6666666666666-7-777-7777777777-|
|-5-55555555555555-6-666-666-666-66-7-7777777777777-8-888-8888888888-|
|--------------------------------------------------------------------|
PM. .............. . ... ... ... .. . ............. . ... ..........

|--------------------------------------------------------------------|
|--------------------------------------------------------------------|
|-6-666-6666666666-7-777-777-777-77-8-888-888888888-9-999-9999999999-|
|-4-444-4444444444-5-555-555-555-55-6-666-666666666-7-777-7777777777-|
|-5-555-5555555555-6-666-666-666-66-7-777-777777777-8-888-8888888888-|
|--------------------------------------------------------------------|
PM. ... .......... . ... .......... . ... .........

BRIDGE 1:
|-------------------------------------------------|
|-------------------------------------------------|
|-------------------------------------------------|
|-------------------------------------------------|
|----64----64----64----64----46----46----46----46-|
|-0-064-0-064-0-064-0-064-0-046-0-046-0-046-0-046-|

|-------------------------------------------------|
|-------------------------------------------------|
|-------------------------------------------------|
|-------------------------------------------------|
|----64----64----64----64----46----46----46----46-|
|-0-064-0-064-0-064-0-064-0-046-0-046-0-046-0-046-|


BRIDGE 2: (Palm Mute)
|-------------------------------------------------|
|-------------------------------------------------|
|-------------------------------------------------|
|-------------------------------------------------|
|-0-064-0-064-0-064-0-064-0-046-0-046-0-046-0-046-|
|-0-064-0-064-0-064-0-064-0-046-0-046-0-046-0-046-|

VERSE: (Palm Mute)
|-----------------------------------------------------------|
|-----------------------------------------------------------|
|---------66666666---------77777777-------------------------|
|-----444444444444-----555555555555-------------------------|
|-5555-------------6666-------------0-064-0-064-0-064-0-064-|
|-----------------------------------0-064-0-064-0-064-0-064-|

|-----------------------------------------------------------|
|-----------------------------------------------------------|
|---------77777777---------88888888-------------------------|
|-----555555555555-----666666666666-------------------------|
|-6666-------------7777-------------0-046-0-046-0-046-0-046-|
|-----------------------------------0-046-0-046-0-046-0-046-|

|-----------------------------------------------------------|
|-----------------------------------------------------------|
|---------66666666---------77777777-------------------------|
|-----444444444444-----555555555555-------------------------|
|-5555-------------6666-------------0-064-0-064-0-064-0-064-|
|-----------------------------------0-064-0-064-0-064-0-064-|

VERSE B:
|----------------------------------------------------|
|----------------------------------------------------|
|---------77777777---------88888888---------99999999-|
|-----555555555555-----666666666666-----777777777777-|
|-6666-------------7777-------------8888-------------|
|----------------------------------------------------|

|--------------------------|
|--------------------------|
|---------1010101010101010-|
|-----8888-8-8-8-8-8-8-8-8-|
|-9999---------------------|
|--------------------------|

VERSE C:
|-------------------------------------------------|
|-------------------------------------------------|
|-----7-------7-------8-------8-------9-------9---|
|---5---5---5---5---6---6---6---6---7---7---7---7-|
|-6-------6-------7-------7-------8-------8-------|
|-------------------------------------------------|

CHORUS:
|--------------------------|
|--------------------------|
|--------------------------|
|--------------------------|
|--------------0----1----5-|
|-8-10-8-7-5-4-0----1----5-|

CHORUS END 1:
|--------------|
|--------------|
|--------------|
|--------------|
|--------------|
|-8-10-8-7-5-4-|

CHORUS END 2:
|---------------------------------------|
|---------------------------------------|
|---------------------------------------|
|---------------------------------------|
|---------------------------------------|
|-8-8-8-8-7-5--8-8-8-8-7-5--8-8-8-8-7-5-|

INTERLUDE: (Palm Mute)
|-------------------------------------|
|-------------------------------------|
|-------------------------------------|
|------6-4------6-4------6-4------6-4-|
|-00-0-6-4-00-0-6-4-00-0-6-4-00-0-6-4-|

INTERLUDE 2: (Palm Mute)
|-------------------------------------|
|-------------------------------------|
|-------------------------------------|
|-------------------------------------|
|------4-6------4-6------4-6------4-6-|
|-00-0-4-6-00-0-4-6-00-0-4-6-00-0-4-6-|


INTERLUDE 3:
|--------------------------|
|--------------------------|
|--------------------------|
|--------------------------|
|--------------6-6-6-6-5---|
|-8-8-8-8-7-5------------8-|

INTERLUDE 4:
|-------------------------------------------|
|-------------------------------------------|
|-------------------------------------------|
|-------------------------------------------|
|--------------6-6-6-6-5-----8--8--8--8-6-5-|
|-8-8-8-8-7-5------------8------------------|

INTERLUDE 5:
|----------------------------------------------------------------------|
|----------------------------------------------------------------------|
|----------------------------------------------------------------------|
|----------------------------------------------------------------------|
|-8-8-8-8-6-5---10-10-10-10-8-6---11-11-11-11-10-8---13-13-13-13-11-10-|
|----------------------------------------------------------------------|

INTERLUDE 6: (Palm Mute)
|--------------|
|--------------|
|--------------|
|--------------|
|-00-0-0000-00-|
|-00-0-0000-00-|

VERSE D: (Palm Mute)
|-----------------------------------------------------------------|
|-----------------------------------------------------------------|
|-----6-------6-------7-------7-------8-------8-------9-------9---|
|---4---4---4---4---5---5---5---5---6---6---6---6---7---7---7---7-|
|-5-------5-------6-------6-------7-------7-------8-------8-------|
|-----------------------------------------------------------------|

CHORUS 2:
|--------------------------------------------------------|
|--------------------------------------------------------|
|--------------------------------------------------------|
|--------------------------------------------------------|
|--------------00-00-0000-00-11-11-1111-11-55-55-5555-55-|
|-8-10-8-7-5-4-00-00-0000-00-11-11-1111-11-55-55-5555-55-|
PM             .. .. .... .. .. .. .... .. .. .. .... ..

OUTRO:
|----------------|
|----------------|
|----------------|
|----------------|
|--------------0-|
|-8-10-8-7-5-4-0-|
Tap to rate this tab
# A B C D E F G H I J K L M N O P Q R S T U V W X Y Z