Song name
# A B C D E F G H I J K L M N O P Q R S T U V W X Y Z

System Of A Down - La Isla Bonita tab

La isla Bonita

This is song is played in C-Drop (like all system songs)
E-String 2 steps down, all the other strings 1 step down,
so in the end you have CGCFAD

Sounds 100% correct to me...

(Clean)

D|----------------------------------------------|
A|----------------------------------------------|
F|---------------9----------------7---------5---|
C|-----7-------9---9----5-------7---7-----5---5-|
G|---7---7---7--------5---5---5---------3-------|
C|-7----------------5---------------------------|

D|----------------------------------------------|
A|----------------------------------------------|
F|----------------------------------------------|
C|-----2---------5---------3--------------------|
G|---2---------5---5-----3---3------------------|
C|-2-----2---5---------3------------------------|

That's it. Pretty easy but fun song to play
Tap to rate this tab
# A B C D E F G H I J K L M N O P Q R S T U V W X Y Z