Song name
# A B C D E F G H I J K L M N O P Q R S T U V W X Y Z

System Of A Down - Peephole tab

e|------------------------------------------------|
B|------------------------------------------------|
G|--3--3--3--3--3--3--3--3--3--3--3--3--3--3--3--3|     Intro
D|-3--3--3--3--3--3--3--3--3--3--3--3--3--3--3--3-|     Light Distortion
A|5--5--------------------5--5--------------------|
E|------4--5--0--0--4--5--------4--5--0--0--4--5--|

e|-----------------------------------|
B|33-33-33-33-33-33-33-33------------|
G|33-33-33-33-33-33-33-33------------|     Verses 1 and 2
D|-----------------------444444777777|     Heavy Distortion
A|-----------------------444444777777|
E|-----------------------444444777777|

e|------999101010------------999101010------9991010101313131313131212121111|
B|888888---------101010101010---------888888-------------------------------|
G|-------------------------------------------------------------------------|
D|-------------------------------------------------------------------------|
A|-------------------------------------------------------------------------|
E|-------------------------------------------------------------------------|
     Pre-Chorus
     Heavy Distortion

e|------------------------------------------------------|
B|------666777------666777------666777------666777------|
G|------666777------666777------666777------666777------|     Chorus
D|555555444555777777444555555555444555777777444555555555|     
A|555555------777777------555555------777777------555555|
E|555555------777777------555555------777777------555555|

Then you hit the intro up again and go for these two verses

e|-----------------------------------|
B|33-33-33-33-33-33-33-33------------|
G|33-33-33-33-33-33-33-33------------|     Verses 3 and 4
D|--5--0--5--0--5--0--5--444444777777|     Heavy Distortion
A|--5--0--5--0--5--0--5--444444777777|     Repeat this riff
E|--5--0--5--0--5--0--5--444444777777|

Hit the chorus again then the solo comes right here

e|-----------------------------------------------------------|
B|-----------------------------------------------------------|
G|7-8-7h8p7p5-7--7-8-7h8p7p5-7--7-5-4-6-2-3-2h3p0------------|
D|-----------------------------------------------444444777777|
A|-----------------------------------------------444444777777|
E|-----------------------------------------------444444777777|

e|9-10-9h10p9p7-9--9-10-9h10p9p7--9-7-6-8-4-5-4h5p3------------|
B|-------------------------------------------------------------|
G|-------------------------------------------------------------|
D|-------------------------------------------------444444777777|
A|-------------------------------------------------444444777777|
E|-------------------------------------------------444444777777|

e|-8-8-8-8-8-9-9-9-9-9|
B|6-6-6-6-6-7-7-7-7-7-|
G|--------------------|This is when the solo starts picking up
D|--------------------|
A|--------------------|
E|--------------------|

This next part is all tremolo picking
e|9999999999999999|
B|----------------|
G|-------6-------6|
D|----------------|
A|----------------|
E|----------------|

Slow this part its all about precision here
e|-6h8-4h6-6h8-6-|
B|6---4---6-----8|
G|---------------|
D|---------------|
A|---------------|
E|---------------|

Then hit the chorus then bar 5 and let it ring for the outro.
Tap to rate this tab
# A B C D E F G H I J K L M N O P Q R S T U V W X Y Z