Song name
# A B C D E F G H I J K L M N O P Q R S T U V W X Y Z

System Of A Down - Spiders tab

----------------------------------------------------------------------------
			 SPIDERS - System Of A Down
----------------------------------------------------------------------------



KEY:

w   - whole note/chord
h   - half note/chord
q   - quarter note/chord
e   - eighth note/chord
s   - sixteenth note/chord
X   - rest of duration x
+x  - note/chord is tied to previous - do not play again

/   - strum chord
X/Y - slide up from note/chord x to note/chord y
<   - increase in volume
 - harmonic - lightly touch string above fret indicated




GUITARS:

Guitar 1: CGCFAD - Clean electric
Guitar 2: CGCFAD - Distortion




CHORDS:


Bb5               C5                G5              G#5

10 10 x x x x     12 12 x x x x     7 7 x x x x     8 8 x x x x





INTRO & VERSE 1:

Guitar 1

~136bpm
 4/4
       W           x8    w          +w         w          +w
D|-||---------------||-|----------|----------|----------|----------|
A|-||---------------||-|----------|----------|----------|----------|
F|-||o-------------o||-|----------|----------|----------|----------|
C|-||o-------------o||-|----------|----------|----------|----------|
G|-||---------------||-|----------|----------|-<12>-----|-(<12>)---|
C|-||---------------||-|-<12>-----|-(<12>)---|----------|----------|


   w          +w         +w         +w         w          +w
D|----------|----------|----------|----------|----------|----------|
A|----------|----------|----------|----------|----------|----------|
F|-<7>------|-(<7>)----|-(<7>)----|-(<7>)----|-<7>------|-(<7>)----|
C|----------|----------|----------|----------|----------|----------|
G|----------|----------|----------|----------|----------|----------|
C|----------|----------|----------|----------|----------|----------|

   w          +w         w          +w         +w         +w
D|----------|----------|----------|----------|----------|----------|
A|----------|----------|----------|----------|----------|----------|
F|----------|----------|-<7>------|-(<7>)----|-(<7>)----|-(<7>)----|
C|----------|----------|----------|----------|----------|----------|
G|-<12>-----|-(<12>)---|----------|----------|----------|----------|
C|----------|----------|----------|----------|----------|----------|




CHORUS 1:

Guitar 2

   Bb5                                                         C5
   e e e e e e e   e e e e e e e   e e e e e e e   e e e e e e e
   / / / / / / /   / / / / / / /   / / / / / / /   / / / / / / /
 |---------------|---------------|---------------|---------------|

 |<-- Riff 1                                       end Riff 1 -->|


Guitar 1

   q q  e q  e   q  e q  e e  e    q q  e e  e  e   q   e  e  e  e  e  e
D|-------------|-----------------|----------------|-----------------------|
A|-------------|-----------------|----------------|-----------------------|
F|---14---12---|-15---14---12/14-|---12---12/14---|-10--10-10-10-10-10-10-|
C|-------------|-----------------|----------------|-----------------------|
G|---12---10---|-13---12---10/12-|---10---10/12---|--8---8--8--8--8--8--8-|
C|-0----0----0-|----0----0-------|-0----0-------0-|-----------------------|
                                                         <    <    <

 |<-- Riff 2                                              end Riff 2 -->|


Guitar 2

   Bb5                             G#5             G5
   e e e e e e e   e e e e e e e   e e e e e e e   e e e e e e e
   / / / / / / /   / / / / / / /   / / / / / / /   / / / / / / /
 |---------------|---------------|---------------|---------------|

 |<-- Riff 3                                       end Riff 3 -->|




VERSE 2:

Guitar 1

       q  q  e  q  e    q  e  q  e  e  e  x4
D|-||-----------------|--------------------||-|
A|-||-----------------|--------------------||-|
F|-||o----9-----9-----|-7-----7-----7--7--o||-|
C|-||o----------------|-------------------o||-|
G|-||-----7-----7-----|-5-----5-----5--5---||-|
C|-||--0-----0-----0--|----0-----0---------||-|

    |<--             Riff 4             -->|


Riff 2


Riff 4 x2


Riff 2




CHORUS 2:

As Chorus 1



SOLO:

Guitar 2

       s  s  s  s  s  s  s  s  s  s  s  s  s  s  s  s
D|-||--------------------------------------------------|
A|-||--------------------------------------------------|
F|-||o-14-14-14-14-14-14-14-14-14-14-14-14-14-14-14-14-|
C|-||o-------------------------------------------------|
G|-||--12-12-12-12-12-12-12-12-12-12-12-12-12-12-12-12-|
C|-||--------------------------------------------------|


   s  s  s  s  s  s  s  s  s  s  s  s  s  s  s  s
D|-------------------------------------------------|
A|-------------------------------------------------|
F|-14-14-14-14-14-14-14-14-14-14-14-14-14-14-14-14-|
C|-------------------------------------------------|
G|-12-12-12-12-12-12-12-12-12-12-12-12-12-12-12-12-|
C|-------------------------------------------------|


   s  s  s  s  s  s  s  s  s  s  s  s  s  s  s  s
D|-------------------------------------------------|
A|-------------------------------------------------|
F|-15-15-15-15-15-15-15-15-15-15-15-15-15-15-15-15-|
C|-------------------------------------------------|
G|-13-13-13-13-13-13-13-13-13-13-13-13-13-13-13-13-|
C|-------------------------------------------------|


   s  s  s  s  s  s  s  s  s  s  s  s  s  s  s  s
D|--------------------------------------------------||-|
A|--------------------------------------------------||-|
F|-15/18-18-18-18-18-18-18-18-18-18-18-18-18-18-18-o||-|
C|-------------------------------------------------o||-|
G|-13/16-16-16-16-16-16-16-16-16-16-16-16-16-16-16--||-|
C|--------------------------------------------------||-|


       e  e  e  e  e  e  e  e    e  e  e  e  e  e  e  e
D|-||--------------------------|-------------------------|
A|-||--------------------------|-------------------------|
F|-||o----19----19----19----19-|----19----19----19----19-|
C|-||o-------------------------|-------------------------|
G|-||--17----17----17----17----|-17----17----17----17----|
C|-||--------------------------|-------------------------|


   e  e  e  e  e  e  e  e    e  e  e  e  e  e  e  e
D|-------------------------|--------------------------||-|
A|-------------------------|--------------------------||-|
F|----20----20----20----20-|----18----18----18----18-o||-|
C|-------------------------|-------------------------o||-|
G|-18----18----18----18----|-16----16----16----16-----||-|
C|-------------------------|--------------------------||-|




CHORUS 3:


Riff 1


Guitar 2

   q q  e q  e   q  e q  e e  e    q q  e e  e  e   q   e  e  e  e  e  e
D|-------------|-----------------|----------------|-----------------------|
A|-------------|-----------------|----------------|-----------------------|
F|---14---12---|-15---14---12/14-|---12---12/14---|-10--10-10-10-10-10-10-|
C|-------------|-----------------|----------------|-----------------------|
G|---12---10---|-13---12---10/12-|---10---10/12---|--8---8--8--8--8--8--8-|
C|-0----0----0-|----0----0-------|-0----0-------0-|-----------------------|

 |<-- Riff 5                                                end Riff 5 -->|


Riff 1


Riff 5


Riff 3



OUTRO:


Riff 4 x4


   q q   e  q  e   q   e q  e  e e    q  q  e  e e   e   q  e  q  e  e  e
D|---------------|------------------|------------------|-------------------|
A|---------------|------------------|------------------|-------------------|
F|---10-----9----|-12----10----9/10-|----9-----9/10----|-7-----7-----7--7--|
C|---------------|------------------|------------------|-------------------|
G|----8-----7----|-10-----8----7-/8-|----7-----7-/8----|-5-----5-----5--5--|
C|-0-----0-----0-|-----0----0-------|-0-----0--------0-|----0-----0--------|


   q  q   e  q   e   q   e  q   e  e  e    q  q   e e  e   e   w
D|-----------------|---------------------|-------------------|----------|
A|-----------------|---------------------|-------------------|----------|
F|----14-----12----|-15-----14-----12/14-|----12----12/14----|-10-------|
C|-----------------|---------------------|-------------------|----------|
G|----12-----10----|-13-----12-----10/12-|----10----10/12----|--8-------|
C|-0------0------0-|-----0------0--------|-0------0--------0-|----------|









Tap to rate this tab
# A B C D E F G H I J K L M N O P Q R S T U V W X Y Z