Song name
# A B C D E F G H I J K L M N O P Q R S T U V W X Y Z

System Of A Down - Atwa tab

Author/Artist: system of a down
Title: atwa
Album: toxicity
Transcribed by: YASARE MAGA?A 
Email: YASARE20@hotmail.com

--------|--------|---------|---------|-----------|---------|---------|--------
--------|--------|---------|---------|-----------|---------|---------|--------
--------|--------|---------|---------|-----------|---------|---------|--------
----8---|----7---|----10---|----12---|-----13----|----12---|----10---|----8---
--------|--------|---------|---------|-----------|---------|---------|--------
-5----5-|-3----3-|-7-----7-|-8-----8-|-10-----10-|-8-----8-|-7-----7-|-5----5-
 intro                                                                        

------------------------------------------------------------------------------
------------------------------------------------------------------------------
------------------------------------------------------------------------------
-5-5-5-5-5-5-5----------------------------------------------------------------
-5-5-5-5-5-5-5----------------------------------------------------------------
-5-5-5-5-5-5-5----------------------------------------------------------------
 i dont care...                                                               

--------|--------|---------|---------|-----------|---------|---------|--------
--------|--------|---------|---------|-----------|---------|---------|--------
--------|--------|---------|---------|-----------|---------|---------|--------
----8---|----7---|----10---|----12---|-----13----|----12---|----10---|----8---
-5----5-|-3----3-|-7-----7-|-8-----8-|-10-----10-|-8-----8-|-7-----7-|-5----5-
-5----5-|-3----3-|-7-----7-|-8-----8-|-10-----10-|-8-----8-|-7-----7-|-5----5-
                                                                              

------------------------------------------------------------------------------
------------------------------------------------------------------------------
------------------------------------------------------------------------------
-5---5---5---5-6--------------------------------------------------------------
-5---5---5---5-6--------------------------------------------------------------
-5---5---5---5-6--------------------------------------------------------------
 any more.....  thats about it!
Tap to rate this tab
 
# A B C D E F G H I J K L M N O P Q R S T U V W X Y Z