Song name
# A B C D E F G H I J K L M N O P Q R S T U V W X Y Z

System Of A Down - Know tab

know-system of a down

drum intro


D----------------------------------------------------------------------------|
A----------------------------------------------------------------------------|
F----------------------------------------------------------------------------|
C----12/0--8--0--8------0--8--0--8------0--8--0--8------0--8--0--8-----------|
G----12/0--8--0--8------0--8--0--8------0--8--0--8------0--8--0--8-----------|
C----12/0--8--0--8------0--8--0--8------0--8--0--8------0--8--0--8-----------|

D---------------------------------------------------------------------------|
A---------------------------------------------------------------------------|
F---------------------------------------------------------------------------|
C----0--8--0--4------0--8--0--4---------------------------------------------|
G----0--8--0--4------0--8--0--4---------------------------------------------|
C----0--8--0--4------0--8--0--4---------------------------------------------|

 serj tankian: Cursed earth¡¡¡¡¡

D---------------------------------------------------------------------------|
A---------------------------------------------------------------------------|
F---------------------------------------------------------------------------|
C----0--8--0--4------0--8--0--4---------------------------------------------|
G----0--8--0--4------0--8--0--4---------------------------------------------|
C----0--8--0--4------0--8--0--4---------------------------------------------|

 serj tankian: Cursed earth¡¡¡¡¡

D---------------------------------------------------------------------------|
A---------------------------------------------------------------------------|
F---------------------------------------------------------------------------|
C----0--8--0--4------0--8--0--4---------------------------------------------|
G----0--8--0--4------0--8--0--4---------------------------------------------|
C----0--8--0--4------0--8--0--4---------------------------------------------|

 serj tankian: Cursed earth¡¡¡¡¡

D----------------------------------------------------------------------------|
A----------------------------------------------------------------------------|
F----------------------------------------------------------------------------|
C----0--8--0--4------0--8--0--4-5--------------------------------------------|
G----0--8--0--4------0--8--0--4-5--------------------------------------------|
C----0--8--0--4------0--8--0--4-5--------------------------------------------|

 serj tankian: Cursed earth¡¡¡¡¡

D--10-10--10-10-10-10-x4-----------------------------------------------------|
A----------------------------------------------------------------------------|
F----------------------------------------------------------------------------|
C----------------------------------------------------------------------------|
G----------------------------------------------------------------------------|
C----------------------------------------------------------------------------|

D----------------------------------------------------------------------------|
A----------------------------------------------------------------------------|
F----------------------------------------------------------------------------|
C--0-0-0-2-3--0-0-0-2-3--0-0-0-2-3--0-0-0-2-3--------------------------------|
G--0-0-0-2-3--0-0-0-2-3--0-0-0-2-3--0-0-0-2-3-------------x2-----------------|
C--0-0-0-2-3--0-0-0-2-3--0-0-0-2-3--0-0-0-2-3--------------------------------|

PALM MUTE

D----------------------------------------------------------------------------|
A----------------------------------------------------------------------------|
F----------------------------------------------------------------------------|
C------0--0-0-0-3--0--0-0-0-3--0--0-0-0-3--0--0-0-0-3--0--0-0-0-3------------|
G----------------------------------------------------------------------------|
C----------------------------------------------------------------------------|

D----------------------------------------------------------------------------|
A----------------------------------------------------------------------------|
F----------------------------------------------------------------------------|
C------0--0-0-0-3--0--0-0-0-3--0--0-0-0-3--0--0-0-0-3--0--0-0-0-3------------|
G----------------------------------------------------------------------------|
C----------------------------------------------------------------------------|

D----------------------------------------------------------------------------|
A----------------------------------------------------------------------------|
F----------------------------------------------------------------------------|
C------0--0-0-0-3--0--0-0-0-3--0--0-0-0-3--0--0-0-0-3--0--0-0-0-3------------|
G----------------------------------------------------------------------------|
C----------------------------------------------------------------------------|

D----------------------------------------------------------------------------|
A----------------------------------------------------------------------------|
F----------------------------------------------------------------------------|
C------0--0-0-0-12/0---------------------------------------------------------|
G---------------12/0---------------------------------------------------------|
C---------------12/0---------------------------------------------------------|

D----------------------------------------------------------------------------|
A----------------------------------------------------------------------------|
F----------------------------------------------------------------------------|
C--0--0-2-3--3--0--0-2-3--xx-x-xx--0--0-2-3--3--0-0-2-3--xx-x-xx-------------|
G--0--0-2-3--3--0--0-2-3--xx-x-xx--0--0-2-3--3--0-0-2-3--xx-x-xx-------------|
C--0--0-2-3--3--0--0-2-3--xx-x-xx--0--0-2-3--3--0-0-2-3--xx-x-xx-------------|


D----------------------------------------------------------------------------|
A----------------------------------------------------------------------------|
F----------------------------------------------------------------------------|
C--0--0-2-3--3--0--0-2-3-----------0--0-2-3--3--0-0-2-3--xx-x-xx-------------|
G--0--0-2-3--3--0--0-2-3-----------0--0-2-3--3--0-0-2-3--xx-x-xx-------------|
C--0--0-2-3--3--0--0-2-3-----------0--0-2-3--3--0-0-2-3--xx-x-xx-------------|

D----------------------------------------------------------------------------|
A----------------------------------------------------------------------------|
F----------------------------------------------------------------------------|
C--0-0-0-2-3--0-0-0-2-3--0-0-0-2-3--0-0-0-2-3--------------------------------|
G--0-0-0-2-3--0-0-0-2-3--0-0-0-2-3--0-0-0-2-3-------------x2-----------------|
C--0-0-0-2-3--0-0-0-2-3--0-0-0-2-3--0-0-0-2-3--------------------------------|

PALM MUTE

D----------------------------------------------------------------------------|
A----------------------------------------------------------------------------|
F----------------------------------------------------------------------------|
C------0--0-0-0-3--0--0-0-0-3--0--0-0-0-3--0--0-0-0-3--0--0-0-0-3------------|
G----------------------------------------------------------------------------|
C----------------------------------------------------------------------------|

D----------------------------------------------------------------------------|
A----------------------------------------------------------------------------|
F----------------------------------------------------------------------------|
C------0--0-0-0-3--0--0-0-0-3--0--0-0-0-3--0--0-0-0-3--0--0-0-0-3------------|
G----------------------------------------------------------------------------|
C----------------------------------------------------------------------------|

D----------------------------------------------------------------------------|
A----------------------------------------------------------------------------|
F----------------------------------------------------------------------------|
C------0--0-0-0-3--0--0-0-0-3--0--0-0-0-3--0--0-0-0-3--0--0-0-0-3------------|
G----------------------------------------------------------------------------|
C----------------------------------------------------------------------------|

D----------------------------------------------------------------------------|
A----------------------------------------------------------------------------|
F----------------------------------------------------------------------------|
C------0--0-0-0-12/0---------------------------------------------------------|
G---------------12/0---------------------------------------------------------|
C---------------12/0---------------------------------------------------------|


D----------------------------------------------------------------------------|
A----------------------------------------------------------------------------|
F----------------------------------------------------------------------------|
C--0--0-2-3--3--0--0-2-3--xx-x-xx--0--0-2-3--3--0-0-2-3--xx-x-xx-------------|
G--0--0-2-3--3--0--0-2-3--xx-x-xx--0--0-2-3--3--0-0-2-3--xx-x-xx-------------|
C--0--0-2-3--3--0--0-2-3--xx-x-xx--0--0-2-3--3--0-0-2-3--xx-x-xx-------------|


D----------------------------------------------------------------------------|
A----------------------------------------------------------------------------|
F----------------------------------------------------------------------------|
C--0--0-2-3--3--0--0-2-3-----------0--0-2-3--3--0-0-2-3--xx-x-xx-------------|
G--0--0-2-3--3--0--0-2-3-----------0--0-2-3--3--0-0-2-3--xx-x-xx-------------|
C--0--0-2-3--3--0--0-2-3-----------0--0-2-3--3--0-0-2-3--xx-x-xx-------------|

D----------------------------------------------------------------------------|
A----------------------------------------------------------------------------|
F----------------------------------------------------------------------------|
C--xx-x-xx--xx-x-xx--xx-x-xx--00-0-00--00-0-00--00-0-00--00-0-00-------------|
G--xx-x-xx--xx-x-xx--xx-x-xx--00-0-00--00-0-00--00-0-00--00-0-00-------------|
C--xx-x-xx--xx-x-xx--xx-x-xx--00-0-00--00-0-00--00-0-00--00-0-00-------------|

D----------------------------------------------------------------------------|
A----------------------------------------------------------------------------|
F----------------------------------------------------------------------------|
C--00-0-00--00-0-00--00-0-00--00-0-00----------------------------------------|
G--00-0-00--00-0-00--00-0-00--00-0-00----------------------------------------|
C--00-0-00--00-0-00--00-0-00--00-0-00----------------------------------------|

D----------------------------------------------------------------------------|
A--------------------10----------------------10------------------------------|
F--------------10----10----------------10----10------------------------------|
C--------------10----10----------------10----10------------------------------|
G--------------8-----------------------8-------------------------------------|
C--0-----------------------0-------------------------------------------------|


D----------------------------------------------------------------------------|
A--------------------10----------------------10------------------------------|
F--------------10----10----------------10----10------------------------------|
C--------------10----10----------------10----10------------------------------|
G--------------8-----------------------8-------------------------------------|
C--0-----------------------0----------------------------12/0-----------------|

PALM MUTE

D----------------------------------------------------------------------------|
A----------------------------------------------------------------------------|
F----------------------------------------------------------------------------|
C--0-0-0-0-0-0-0000-0-0-0-0-0-0--3-3-3-3-3-3-3333-3-3-3-3-3-3--x2------------|
G----------------------------------------------------------------------------|
C----------------------------------------------------------------------------|


D----------------------------------------------------------------------------|
A----------------------------------------------------------------------------|
F----------------------------------------------------------------------------|
C--0-0-0-0-0-0000-0-0-0-0-0-0-0---3-3-3-3-3-3-3333-3-3-3-3-3-3--x2-----------|
G--0-0-0-0-0-0000-0-0-0-0-0-0-0---3-3-3-3-3-3333-3-3-3-3-3-3-3---------------|
D--0-0-0-0-0-0000-0-0-0-0-0-0-0---3-3-3-3-3-3333-3-3-3-3-3-3-3---------------|

D----------------------------------------------------------------------------|
A----------------------------------------------------------------------------|
F----------------------------------------------------------------------------|
C--0--0-2-3--3--0--0-2-3--xx-x-xx--0--0-2-3--3--0-0-2-3--xx-x-xx-------------|
G--0--0-2-3--3--0--0-2-3--xx-x-xx--0--0-2-3--3--0-0-2-3--xx-x-xx-------------|
C--0--0-2-3--3--0--0-2-3--xx-x-xx--0--0-2-3--3--0-0-2-3--xx-x-xx-------------|


D----------------------------------------------------------------------------|
A----------------------------------------------------------------------------|
F----------------------------------------------------------------------------|
C--0--0-2-3--3--0--0-2-3-----------0--0-2-3--3--0-0-2-3--xx-x-xx-------------|
G--0--0-2-3--3--0--0-2-3-----------0--0-2-3--3--0-0-2-3--xx-x-xx-------------|
C--0--0-2-3--3--0--0-2-3-----------0--0-2-3--3--0-0-2-3--xx-x-xx-------------|


SOUL OF DEATH
VENJAMIN
MAURICIO
MAYU
EDGAR
DIEGO
Tap to rate this tab
# A B C D E F G H I J K L M N O P Q R S T U V W X Y Z