Song name
# A B C D E F G H I J K L M N O P Q R S T U V W X Y Z

System Of A Down - Aerials tab

---------|---------|-------------------|--------------------------------------
---------|---------|-------------------|--------------------------------------
-10-9-7--|-12-10-9-|-10-12-14-15-14-12-|-10-9-7-------------------------------
---------|---------|-------------------|--------------------------------------
-8--7-5--|-10-8--7-|-8--10-12-13-12-10-|-8--7-5-------------------------------
---------|---------|-------------------|--------------------------------------
 octave versions of the bass riff sounds cool on a second guitar!             

------------------------------------------------------------------------------
------------------------------------------------------------------------------
------------------------------------------------------------------------------
-----0-----0-----0-----0-----0------------------------------------------------
---0-----0-----0-----0-----0---0----------------------------------------------
-0-----0-----0-----0-----0----------------------------------------------------
 guitar part, the bass plays the notes                                        

------------------------------------------------------------------------------
------------------------------------------------------------------------------
------------------------------------------------------------------------------
-8-8-8------------------------------------------------------------------------
-8-8-8------------------------------------------------------------------------
-8-8-8------------------------------------------------------------------------
 life is a                                                                    

-------------------------------------------------------|---------------------------------
------------------------------------------------------|---------------------------------
----------12---------10--------9---------7---------|---------------------------------
-------------------------------------------------------|--7------------------------------
----------10---------8---------7---------5----------|--7------------------------------
--0-0-0-0----0-0-0-0---0-0-0-0---0-0-0-0----|--7------------------------------
                                            before heave riff                 

-------|-------|-------------|------------------------------------------------
-------|-------|-------------|------------------------------------------------
-------|-------|-------------|------------------------------------------------
-3-2-0-|-5-3-2-|-3-5-7-8-7-5-|-3-2-0------------------------------------------
-3-2-0-|-5-3-2-|-3-5-7-8-7-5-|-3-2-0------------------------------------------
-3-2-0-|-5-3-2-|-3-5-7-8-7-5-|-3-2-0------------------------------------------
                                            
?'s e-mail me m1a8r86@yahoo.com.mx
Tap to rate this tab
# A B C D E F G H I J K L M N O P Q R S T U V W X Y Z