Song name
# A B C D E F G H I J K L M N O P Q R S T U V W X Y Z

System Of A Down - Science tab

System Of A Down
Science


D|--10------------------------------10-------------------------------------|
A|-------------------------------------------------------------------------|
F|-------------------------------------------------------------------------|
C|------0-0-000-0-0-000-0-0-000-0-0-----0-0-000-0-0-000-0-0-000-0-0--------|
G|-------------------------------------------------------------------------|
C|-------------------------------------------------------------------------|


D|--10--------------10--------------10------10------10------10---------|
A|---------------------------------------------------------------------|
F|---------------------------------------------------------------------|
C|------0-0-000-0-0-----0-0-000-0-0-----0-0-----0-0-----0-0-----0-0----|
G|---------------------------------------------------------------------|
C|---------------------------------------------------------------------|

 x2    P.M.. . . .    . . . . . .    . . . . . .
D|------------------------------------------------------------------|
A|------------------------------------------------------------------|
F|--7--------------7--------------7---------------------------------|
C|--7--0-0-0-0-0-0-7--0-0-0-0-0-0-7--0-0-0-0-0-0--------------------|
G|--5--0-0-0-0-0-0-5--0-0-0-0-0-0-5--0-0-0-0-0-0------7-8-10-8-7----|
C|-----0-0-0-0-0-0----0-0-0-0-0-0----0-0-0-0-0-0-8-10---------------|

       P.M.... . . ... . . ... . .    . . ... . . ... . . ... . .
D|-------------------------------------------------------------------|
A|-------------------------------------------------------------------|
F|--8------------------------------8---------------------------------|
C|--8--0-0-000-0-0-000-0-0-000-0-0-8--0-0-000-0-0-000-0-0-000-0-0----|
G|--6------------------------------6---------------------------------|
C|-------------------------------------------------------------------|

       P.M.... . .    . . ... . .    . .    . .    . .    . .
D|---------------------------------------------------------------|
A|---------------------------------------------------------------|
F|--8--------------8--------------8------8------8------8---------|
C|--8--0-0-000-0-0-8--0-0-000-0-0-8--0-0-8--0-0-8--0-0-8--0-0----|
G|--6--------------6--------------6------6------6------6---------|
C|---------------------------------------------------------------|

        P.M.... . . ... . . ... . .     . . ... . . ... . . ... . .
D|--10------------------------------10-------------------------------------|
A|-------------------------------------------------------------------------|
F|-------------------------------------------------------------------------|
C|------0-0-000-0-0-000-0-0-000-0-0-----0-0-000-0-0-000-0-0-000-0-0--------|
G|-------------------------------------------------------------------------|
C|-------------------------------------------------------------------------|

        P.M.... . .     . . ... . .     . .     . .     . .     . . 
D|--10--------------10--------------10------10------10------10---------|
A|---------------------------------------------------------------------|
F|---------------------------------------------------------------------|
C|------0-0-000-0-0-----0-0-000-0-0-----0-0-----0-0-----0-0-----0-0----|
G|---------------------------------------------------------------------|
C|---------------------------------------------------------------------|

 x2    P.M.. . . .    . . . . . .    . . . . . .
D|------------------------------------------------------------------|
A|------------------------------------------------------------------|
F|--7--------------7--------------7---------------------------------|
C|--7--0-0-0-0-0-0-7--0-0-0-0-0-0-7--0-0-0-0-0-0--------------------|
G|--5--0-0-0-0-0-0-5--0-0-0-0-0-0-5--0-0-0-0-0-0------7-8-10-8-7----|
C|-----0-0-0-0-0-0----0-0-0-0-0-0----0-0-0-0-0-0-8-10---------------|

       P.M.... . . ... . . ... . .    . . ... . . ... . . ... . .
D|-------------------------------------------------------------------|
A|-------------------------------------------------------------------|
F|--8------------------------------8---------------------------------|
C|--8--0-0-000-0-0-000-0-0-000-0-0-8--0-0-000-0-0-000-0-0-000-0-0----|
G|--6------------------------------6---------------------------------|
C|-------------------------------------------------------------------|

        P.M.... . .     . . ... . .     . .     . .     . .     . . 
D|--10--------------10--------------10------10------10------10---------|
A|---------------------------------------------------------------------|
F|---------------------------------------------------------------------|
C|------0-0-000-0-0-----0-0-000-0-0-----0-0-----0-0-----0-0-----0-0----|
G|---------------------------------------------------------------------|
C|---------------------------------------------------------------------|

 x2    P.M.. . . .    . . . . . .    . . . . . .
D|------------------------------------------------------------------|
A|------------------------------------------------------------------|
F|--7--------------7--------------7---------------------------------|
C|--7--0-0-0-0-0-0-7--0-0-0-0-0-0-7--0-0-0-0-0-0--------------------|
G|--5--0-0-0-0-0-0-5--0-0-0-0-0-0-5--0-0-0-0-0-0------7-8-10-8-7----|
C|-----0-0-0-0-0-0----0-0-0-0-0-0----0-0-0-0-0-0-8-10---------------|

 x2
D|------------------------------------------------------------------|
A|------------------------------------------------------------------|
F|------------------------------------------------------------------|
C|--0--------------2--------------3---------------------------------|
G|--0--------------2--------------3-------------------7-8-10-8-7----|
C|--0--------------2--------------3--------------8-10---------------|

 x2    P.M.. ..       .. .. ..       .. .. .. .. .. .. ..
D|-----------------------------------------------------------|
A|-----------10----------10-11----------10-11-13-11-10-11----|
F|--------12-------------------------------------------------|
C|-----12-------------12-------------12----------------------|
G|-----------------------------------------------------------|
C|-----------------------------------------------------------|

       P.M.. ..       .. .. ..       .. .. .. .. .. .. ..
D|-----------------------------------------------------------|
A|-----------10----------10-11----------10-11-13-11-13-11----|
F|--------12-------------------------------------------------|
C|-----12-------------12-------------12----------------------|
G|-----------------------------------------------------------|
C|-----------------------------------------------------------|


D|----------------------------------------|
A|----------------------------------------|
F|--10-10-12----10------------10----------|
C|------------------14--14-14----14-12----|
G|----------------------------------------|
C|----------------------------------------|


D|--------------------------------------------------------------------------|
A|--------10----11-----10--10--10-10----------10----13--11-10--10--10-10----|
F|--12-12-----------12------------------12-12-------------------------------|
C|--------------------------------------------------------------------------|
G|--------------------------------------------------------------------------|
C|--------------------------------------------------------------------------|


D|----------------------------------------------------------------------------|
A|--------10----11--13-10--10--10-10------------------------------------------|
F|--12-12-------------------------------10-10-12----10------------10----------|
C|------------------------------------------------------14--14-14----14-10----|
G|----------------------------------------------------------------------------|
C|----------------------------------------------------------------------------|


D|--------------------------------------------------------------------------|
A|--------10----11-----10--10--10-10----------10----13--11-10--10--10-10----|
F|--12-12-----------12------------------12-12-------------------------------|
C|--------------------------------------------------------------------------|
G|--------------------------------------------------------------------------|
C|--------------------------------------------------------------------------|


D|----------------------------------------------------------------------------|
A|--------10----11--13-10--10--10-10------------------------------------------|
F|--12-12-------------------------------10-10-12----10------------10----------|
C|------------------------------------------------------14--14-14----14-10----|
G|----------------------------------------------------------------------------|
C|----------------------------------------------------------------------------|


D|-----------------------------------------------------------------------|
A|--------10----11-----10--10--10-11-----10--10--10-11-----10--10--10----|
F|--12-12-----------12----------------12----------------12---------------|
C|-----------------------------------------------------------------------|
G|-----------------------------------------------------------------------|
C|-----------------------------------------------------------------------|

       P.M.... . .    . . ... . .     . .     . .     . .     . . 
D|--------------------------------10------10------10------10---------|
A|-------------------------------------------------------------------|
F|--8--------------8-------------------------------------------------|
C|--8--0-0-000-0-0-8--0-0-000-0-0-----0-0-----0-0-----0-0-----0-0----|
G|--6--------------6-------------------------------------------------|
C|-------------------------------------------------------------------|

 x2    P.M.. . . .    . . . . . .    . . . . . .
D|------------------------------------------------------------------|
A|------------------------------------------------------------------|
F|--7--------------7--------------7---------------------------------|
C|--7--0-0-0-0-0-0-7--0-0-0-0-0-0-7--0-0-0-0-0-0--------------------|
G|--5--0-0-0-0-0-0-5--0-0-0-0-0-0-5--0-0-0-0-0-0------7-8-10-8-7----|
C|-----0-0-0-0-0-0----0-0-0-0-0-0----0-0-0-0-0-0-8-10---------------|

 x2   P.M.... ...   . . ... ...     . . ... ...
D|-----------------------------------------------------------------|
A|-----------------------------------------------------------------|
F|--7-------------9-------------10---------------------------------|
C|--7-------------9-------------10---------------------------------|
G|--5-555-555-555-7-777-777-777-8---888-888-888------7-8-10-8-7----|
C|----------------------------------------------8-10---------------|

 x2
D|------------------------------------------------------------------|
A|------------------------------------------------------------------|
F|------------------------------------------------------------------|
C|--0--------------2--------------3---------------------------------|
G|--0--------------2--------------3-------------------7-8-10-8-7----|
C|--0--------------2--------------3--------------8-10---------------|


D|-------|
A|-------|
F|-------|
C|--0----|
G|--0----|
C|--0----|




| /  slide up
| \  slide down
| h  hammer-on
| p  pull-off
| ~  vibrato
| +  harmonic
| x  Mute note
| b  bend
| r  release bend
| .  palm mute
===========================================================================
R.G.P.
Tap to rate this tab
 
# A B C D E F G H I J K L M N O P Q R S T U V W X Y Z