Song name
# A B C D E F G H I J K L M N O P Q R S T U V W X Y Z

System Of A Down - Sugar tab

(I also did "Bounce, the newer tab)

Tuning:Drop D (Low to High:CGCFAD)

Intro/Chorus Riff
(Play 8 times)           Verse Riff #1:

|-----------------------|------13--------13--12--------------10------------10---|
|-----------------------|-10----------------------13----10----------------------|
|-----------------------|-------------------------------------------------------|
|-----------------------|-------------------------------------------------------|
|-0--7--6--5--0--6--6--5|-------------------------------------------------------|
|-0--7--6--5--0--6--6--5|-------------------------------------------------------|

Verse Riff #2:                         Let ring......................................
                                       
|------13------(13)--13---12--------------------10---------10---------10---------10--|
|-10----------------------------(13)----10-----------10---------10---------10--------|
|------------------------------------------------------------------------------------|
|------------------------------------------------------------------------------------|
|------------------------------------------------------------------------------------|
|------------------------------------------------------------------------------------|

Bridge:(Play 8 times.........................)
            (Rest)                 (Rest)
|----------------------|---------------------|
|----------------------|---------------------|
|----------------------|---------------------|
|----------------------|---------------------|
|-1--------------------|-1--0----------------|
|-1--------------------|-1--0----------------|

Outro Chorus:(Play 12 times)

|-----------------------------|-------------------------------|
|-----------------------------|-------------------------------|
|-----------------------------|-------------------------------|
|-----------------------------|-------------------------------|
|-1----------------------1--0-|-1--0---------------------0--0-|
|-1------X\(slide down)--1--0-|-1--0-----X\(slide down)--0--0-|


Tap to rate this tab
# A B C D E F G H I J K L M N O P Q R S T U V W X Y Z