Guitaretab - guitar tabs
Song name
# A B C D E F G H I J K L M N O P Q R S T U V W X Y Z

System Of A Down - Toxicity tab

Title:Toxicity
Band:System of A Down
Transcribed by:B.Chamberlain
E-mail:lespaulstudiolite@yahoo.com

Tuning:(CGCFAD)Guitar 1
Tuning:(eBGDAE)Guitar 2

Intro:

The intro to Toxicity has a distortion guitar, and a
mandolin in the background. So what I do is that I
replace the mandolin with a guitar with standard tuning.
So guitar with distortion is Guitar 1, and standard
tuning is Guitar 2.

Guitar 1

|----------------------------------------------------------------------------------|
|----------------------------------------------------------------------------------|
|----------------------------------------------------------------------------------|
|---7---7---7---7---/9---9---9---9\7---7---8---8---7---7/9---9----10----10---9---9-|
|-5---5---5---5---/7---7---7---7\5---5---5---5---5---5/7---7---7---7---7---7---7---|
|----------------------------------------------------------------------------------|

Guitar 2

|---3---3---3---3---/5---5---5---5---\3---3---4---4---3---3/5---5---6---6---4---5-|
|-1---1---1---1---/3---3---3---3---\1---1---1---1---1---1/3---3---3---3---3---3---|
|---------------------------------------------------------------------------------|
|---------------------------------------------------------------------------------|
|---------------------------------------------------------------------------------|
|---------------------------------------------------------------------------------|

Chorus:Just distortion guitar

 Below is the chorus
|--------------------------------------|-------------------------------|
|--------------------------------------|-------------------------------|
|--------------------------------------|-------------------------------|
|--------------------------------------|-------------------------------|
|-0----3-2-0-2-0----8--8-8-8--7--7-7-7-|-3-2-0-2-0-3-2-0-2-0-3-2-0-2-0-|
|-0----3-2-0-2-0----8--8-8-8--7--7-7-7-|-3-2-0-2-0-3-2-0-2-0-3-2-0-2-0-|

Play the chorus 2 times, then the heavy part after you play
it. Then go back to the intro, then to the heavy part where
they play like crazy, and at the end. I really don't know this 
song, but it's real popular, so I thought I would give it a try.






































[ Tab from: http://www.guitaretab.com/s/system-of-a-down/23669.html ]
Related for Toxicity tab
Toxicity chords by System Of A Down