Song name
# A B C D E F G H I J K L M N O P Q R S T U V W X Y Z

System Of A Down - Deer Dance tab

----------------------------------------------------------------------------
			DEER DANCE - System Of A Down
----------------------------------------------------------------------------


Here is a great song with the solo tabbed out in full detail.  It should hopefully be near-perfect.  Good luck!


KEY:

w   - whole note/chord
h   - half note/chord
q   - quarter note/chord
e   - eighth note/chord
s   - sixteenth note/chord
x.  - 1.5 times x
X   - rest of duration x
+x  - note/chord is tied to previous - do not play again

/   - strum chord
*   - palm mute note/chord
X/Y - slide up from note/chord X to note/chord Y
X\Y - slide down from note/chord X to note/chord Y
 - harmonic - lightly touch string above fret indicated



GUITARS:

Guitar 1: CGCFAD - Distortion
Guitar 2: CGCFAD - Acoustic



CHORDS:


C5              C#5

0 0 x x x x     1 1 x x x x



INTRO:


Guitar 1

~160bpm
 4/4
       C#5 C5 C#5 C5 C#5 C5 C#5         C#5 C5 C#5 C5 C#5 C5 C#5 C5
       s s e  s s e  s s e  e  E        e   e  e   e  e   e  e   e
       * * *  * * *  * * *  /     x4    *   *  *   *  *   *  *   *
 |-||o----------------------------o||-|-----------------------------|

 |<-- Riff 1


   C#5 C5 C#5 C5 C#5 C5 C#5 C5   C#5 C5 C#5 C5 C#5 C5 C#5
   e   e  e   e  e   e  e   e    e   e  e   e  e   e  e   E
   *   *  *   *  *   *  *   *    *   *  *   *  *   *  /
 |-----------------------------|-----------------------------|



   C#5 C5 C#5 C5 C#5 C5 C#5
   e   e  e   e  e   e  e   E
   *   *  *   *  *   *  /      
 |-----------------------------|

                 end Riff 1 -->|



VERSE 1:


Guitar 1

       q e e q e e   q e E  h    x6      s s s s s s s s s s s s s s s s
D|-||--------------|--------------||-||----------------------------------|
A|-||--------------|--------------||-||----------------------------------|
F|-||o-------------|--------<7>--o||-||o---------------------------------|
C|-||o-------------|-------------o||-||o---------------------------------|
G|-||--------------|--------------||-||----------------------------------|
C|-||--5/8\3-3/7\1-|-1/5----------||-||--5-5-5-5-8-8-8-8-3-3-3-3-7-7-7-7-|
                                         * * * * * * * * * * * * * * * *


   s s s s s s s s s s s s s s s s   s s s s s s s s s s s s s s s s
D|---------------------------------|---------------------------------|
A|---------------------------------|---------------------------------|
F|---------------------------------|---------------------------------|
C|---------------------------------|---------------------------------|
G|---------------------------------|---------------------------------|
C|-1-1-1-1-5-5-5-5-0-0-0-0-0-0-0-0-|-5-5-5-5-8-8-8-8-3-3-3-3-7-7-7-7-|
   * * * * * * * * * * * * * * * *   * * * * * * * * * * * * * * * *


   s s s s s s s s   h
D|------------------------||-|
A|------------------------||-|
F|------------------<7>--o||-|
C|-----------------------o||-|
G|------------------------||-|
C|-1-1-1-1-5-5-5-5--------||-|
   * * * * * * * * 



CHORUS 1:


As Intro



VERSE 2:


As Verse 1



CHORUS 2:


As Intro




SOLO & BRIDGE:


Guitars 1 & 2

       W     x4      e e e e e e e e  x8    e e h    e  E
D|-||---------||-||--6-5-----8-6-5-----||-|-6-5------6-----|
A|-||---------||-||------6---------6---||-|-----8----------|
F|-||o-------o||-||o-------7----------o||-|----------------|
C|-||o-------o||-||o------------------o||-|----------------|
G|-||---------||-||--------------------||-|----------------|
C|-||---------||-||--------------------||-|----------------|
 |                   * * * * * * * *                       |
 |                                                         |
 |     W     x4      W                x8    e e h.         |
D|-||---------||-||--------------------||-|-6-5------------|
A|-||---------||-||--------------------||-|-----8----------|
F|-||o-------o||-||o------------------o||-|----------------|
C|-||o-------o||-||o------------------o||-|----------------|
G|-||---------||-||--------------------||-|----------------|
C|-||---------||-||--------------------||-|----------------|



   e  e  e  e  e  e  e  e    e   e   e   e   e   e   e   e
D|-6--5--------8--6--5-----|-6---6---6---6---8---8---8---8---|
A|-------6--------------6--|---------------------------------|
F|----------7--------------|---------------------------------|
C|-------------------------|---------------------------------|
G|-------------------------|---------------------------------|
C|-------------------------|---------------------------------|
 |                                                           |
 |                                                           |
 | +q. s s s s s s s s s s   s s s s s s s s s s s s s s s s |
D|-------------------------|-6-6-6-6-6-6-6-6-8-8-8-8-8-8-8-8-|
A|-(8)-8-8-8-8-8-8-8-8-8-8-|---------------------------------|
F|-------------------------|---------------------------------|
C|-------------------------|---------------------------------|
G|-------------------------|---------------------------------|
C|-------------------------|---------------------------------|



   e     e     e     q    q    e   e   e   e   q       e   e   e
D|-10----10----10----11---10---8-|-5---5---5---6-------5-----------|
A|-------------------------------|-------------------------6-------|
F|-------------------------------|-----------------------------7---|
C|-------------------------------|---------------------------------|
G|-------------------------------|---------------------------------|
C|-------------------------------|---------------------------------|
 |                                                                 |
 |                                                                 |
 | s  s  s  s  s  s  q    q    e   s s s s s s s s s s s s s s s s |
D|-10-10-10-10-10-10-11---10---8-|-5-5-5-5-5-5-5-5-5-5-5-5-5-5-5-5-|
A|-------------------------------|---------------------------------|
F|-------------------------------|---------------------------------|
C|-------------------------------|---------------------------------|
G|-------------------------------|---------------------------------|
C|-------------------------------|---------------------------------|



   e   e   e   e   e   e   e   e         e e e e e e e e
D|-6---5-----------8---6---5-------|-||--6-5-----8-6-5----||-|
A|---------6-------------------6---|-||------6---------6--||-|
F|-------------7-------------------|-||o-------7---------o||-|
C|---------------------------------|-||o-----------------o||-|
G|---------------------------------|-||-------------------||-|
C|---------------------------------|-||-------------------||-|
 |                                                           |
 |                                                           |
 | s s s s s s s s s s s s s s s s       W                   |
D|-5-5-5-5-5-5-5-5-5-5-5-5-5-5-5-5-|-||-------------------||-|
A|---------------------------------|-||-------------------||-|
F|---------------------------------|-||o-----------------o||-|
C|---------------------------------|-||o-----------------o||-|
G|---------------------------------|-||-------------------||-|
C|---------------------------------|-||-------------------||-|



   e e h   e e   e  e  e  e  e  e  e  e    e   e   e   e   e   e   e   e
D|-6-5-----6-6-|-6--5--------8--6--5-----|-6---6---6---6---8---8---8---8---|
A|-----8---8-8-|-------6--------------6--|---------------------------------|
F|-------------|----------7--------------|---------------------------------|
C|-------------|-------------------------|---------------------------------|
G|-------------|-------------------------|---------------------------------|
C|-------------|-------------------------|---------------------------------|
 |                                                                         |
 |                                                                         |
 | e e h.        +q. s s s s s s s s s s   s s s s s s s s s s s s s s s s |
D|-6-5---------|-------------------------|-6-6-6-6-6-6-6-6-8-8-8-8-8-8-8-8-|
A|-----8-------|-(8)-8-8-8-8-8-8-8-8-8-8-|---------------------------------|
F|-------------|-------------------------|---------------------------------|
C|-------------|-------------------------|---------------------------------|
G|-------------|-------------------------|---------------------------------|
C|-------------|-------------------------|---------------------------------|



   e     e     e     q    q    e   e   e   e   q       q       e
D|-10----10----10----11---10---8-|-5---5---5---6-------5-------6---|
A|-------------------------------|---------------------------------|
F|-------------------------------|---------------------------------|
C|-------------------------------|---------------------------------|
G|-------------------------------|---------------------------------|
C|-------------------------------|---------------------------------|
 |                                                                 |
 |                                                                 |
 | s  s  s  s  s  s  q    q    e   s s s s s s s s s s s s s s s s |
D|-10-10-10-10-10-10-11---10---8-|-5-5-5-5-5-5-5-5-5-5-5-5-5-5-5-5-|
A|-------------------------------|---------------------------------|
F|-------------------------------|---------------------------------|
C|-------------------------------|---------------------------------|
G|-------------------------------|---------------------------------|
C|-------------------------------|---------------------------------|



   +e   q      e   e   e   e   e         e e e e e e e e x6      W    x4
D|-(6)--5------5---8---6---5-------|-||--6-6-6-5-5-5-5-5--||-||--------||-|
A|-----------------------------6---|-||--6-6-6-6-6-6-6-6--||-||--------||-|
F|---------------------------------|-||o-----------------o||-||o------o||-|
C|---------------------------------|-||o-----------------o||-||o------o||-|
G|---------------------------------|-||-------------------||-||--------||-|
C|---------------------------------|-||-------------------||-||--------||-|
 |                                                                        |
 |                                                                        |
 | s s s s s s s s s s s s s s s s       e e e e e e e e x6      W    x4  |
D|-5-5-5-5-5-5-5-5-5-5-5-5-5-5-5-5-|-||--6-6-6-5-5-5-5-5--||-||--------||-|
A|---------------------------------|-||--6-6-6-6-6-6-6-6--||-||--------||-|
F|---------------------------------|-||o-----------------o||-||o------o||-|
C|---------------------------------|-||o-----------------o||-||o------o||-|
G|---------------------------------|-||-------------------||-||--------||-|
C|---------------------------------|-||-------------------||-||--------||-|



CHORUS 3:


Riff 1


Guitar 1

       C#5 C5 C#5 C5 C#5 C5 C#5 C5   C#5 C5 C#5 C5 C#5 C5 C#5
       e   e  e   e  e   e  e   e    e   e  e   e  e   e  e   E
       *   *  *   *  *   *  *   *    *   *  *   *  *   *  /      x4
 |-||o-----------------------------|-----------------------------o||-|








Tap to rate this tab
 
# A B C D E F G H I J K L M N O P Q R S T U V W X Y Z