Song name
# A B C D E F G H I J K L M N O P Q R S T U V W X Y Z

System Of A Down - Blue tab

Help us improve GuitareTab! Take a short survey!
Artist: System of a down
number: Blue
Transcribed by: jurre
Email: skateboard_rules_1@hotmail.com

A
  3x:                                  1x:
1:---14-14-14-14\2-----14-14-14-14/21-|---14-14-14-14\2-----2-2-2-2-|
2:------------------------------------|-----------------------------|
3:------------------------------------|-----------------------------|
4:------------------------------------|-----------------------------|
5:------------------------------------|-----------------------------|
6:------------------------------------|-----------------------------|


B
  4x:           4x:
1:-------------|-------------|
2:-------------|-------------|
3:-------5-----|-------3-----|
4:---4-----4---|---2-----2---|
5:-5---5-----5-|-3---3-----3-|
6:-------------|-------------|


C
1:-------------|-------------|
2:-------------|-------------|
3:-------------|-------------|
4:-0-4-4-4-4-4-|-4-1-1-1-1-1-|
5:-0-4-4-4-4-4-|-4-1-1-1-1-1-|
6:-0-4-4-4-4-4-|-4-1-1-1-1-1-|


D
1:----------------|----------------|----------------|------------------|
2:----------------|----------------|----------------|------------------|
3:-7---7---7---7--|--6---6---6---6-|-7---7---7---7--|------------------|
4:-7---7---7---7--|--6---6---6---6-|-7---7---7---7--|--8---8---11---11-|
5:-5---5---5---5--|--4---4---4---4-|-5---5---5---5--|--8---8---11---11-|
6:----------------|----------------|----------------|--8---8---11---11-|

1:-------------------|-------------------|-------------------|-------------------------|
2:-------------------|-------------------|-------------------|-------------------------|
3:-7--7--7-7-7-7-7-7-|-6--6--6-6-6-6-6-6-|-7--7--7-7-7-7-7-7-|-------------------------|
4:-7--7--7-7-7-7-7-7-|-6--6--6-6-6-6-6-6-|-7--7--7-7-7-7-7-7-|-8--8-8-8---11--11-11-11-|
5:-5--5--5-5-5-5-5-5-|-4--4--4-4-4-4-4-4-|-5--5--5-5-5-5-5-5-|-8--8-8-8---11--11-11-11-|
6:-------------------|-------------------|-------------------|-8--8-8-8---11--11-11-11-|

1:-10-10-9--10--10-10-9--10--10-10-9--10--10\\0-|
2:----------------------------------------------|
3:----------------------------------------------|
4:----------------------------------------------|
5:----------------------------------------------|
6:----------------------------------------------|


E
  1x:                   8x:
1:---------0-----------|------------0-----------|
2:---0-------0-------0-|------0-------0-------0-|
3:-3---3-------3---3---|----3---3-------3---3---|
4:-------2-------2-----|--2-------2-------2-----|
5:---------------------|------------------------|
6:---------------------|------------------------|


ORDER:
=====

A
B 3x
C 4x
B 3x
C 4x
D
C 4x
B 3x
E
Related for Blue tab