Song name
# A B C D E F G H I J K L M N O P Q R S T U V W X Y Z

System Of A Down - Atwa tab

 ATWA

(C-G-C-F-A-D)

A
1:--------|--------|---------|---------|-----------|---------|---------|--------|
2:--------|--------|---------|---------|-----------|---------|---------|--------|
3:--------|--------|---------|---------|-----------|---------|---------|--------|
4:----8---|----7---|----10---|----12---|-----13----|----12---|----10---|----8---|
5:--------|--------|---------|---------|-----------|---------|---------|--------|
6:-5----5-|-3----3-|-7-----7-|-8-----8-|-10-----10-|-8-----8-|-7-----7-|-5----5-|


B
1:---------------|---------------|
2:---------------|---------------|
3:---------------|---------------|
4:-5-5-5-5-5-5-5-|-5-5-5-5-5-5-5-|
5:-5-5-5-5-5-5-5-|-5-5-5-5-5-5-5-|
6:-5-5-5-5-5-5-5-|-5-5-5-5-5-5-5-|


C
1:--------|--------|---------|---------|-----------|---------|---------|--------|
2:--------|--------|---------|---------|-----------|---------|---------|--------|
3:--------|--------|---------|---------|-----------|---------|---------|--------|
4:----8---|----7---|----10---|----12---|-----13----|----12---|----10---|----8---|
5:-5------|-3------|-7-------|-8-------|-10--------|-8-------|-7-------|-5------|
6:-5----5-|-3----3-|-7-----7-|-8-----8-|-10-----10-|-8-----8-|-7-----7-|-5----5-|
                                                                              

D
1:-----------------|
2:-----------------|
3:-----------------|
4:-5---5---5---5-6-|
5:-5---5---5---5-6-|
6:-5---5---5---5-6-|


E
1:-------------------------------------------------------------------------------|
2:-------------------------------------------------------------------------------|
3:-12---12---10---10---14---14---15---15---17---17---15---15---14---14---12---12-|
4:-------------------------------------------------------------------------------|
5:-10---10---8----8----12---12---13---13---15---15---13---13---12---12---10---10-|
6:-------------------------------------------------------------------------------|

   ah.....................................................
1:---------------------------------------------------------|
2:---------------------------------------------------------|
3:-12-----10-----14-----15-----17-----15-----14-----12-----|
4:---(8x)---(8x)---(8x)---(8x)---(8x)---(8x)---(8x)---(8x)-|
5:-10-----8------12-----13-----15-----13-----12-----10-----|
6:---------------------------------------------------------|


F
1:-----------------------------------------------------------------|
2:-----------------------------------------------------------------|
3:-----------------------------------------------------------------|
4:-5---5---3---3---7---7---8---8---10---10---8---8---7---7---5---5-|
5:-5---5---3---3---7---7---8---8---10---10---8---8---7---7---5---5-|
6:-5---5---3---3---7---7---8---8---10---10---8---8---7---7---5---5-|


ORDER:
=====

A 4x
B 4x
C 4x
B 4x
D 4x
E
F 2x
B 4x
D 4x
 
Tap to rate this tab
# A B C D E F G H I J K L M N O P Q R S T U V W X Y Z