Song name
# A B C D E F G H I J K L M N O P Q R S T U V W X Y Z

System Of A Down - Aerials tab

===========
 Aerials
===========
This song's tuning is drop D; then all strings down one whole step
(C-G-C-F-A-D)


Artist: System of a down
Release: Toxicity
Transcribed by: Dracuger
Email: Dracuger@yahoo.com


Here is the cello Intro(to play it with guitar just hammeron
with one hand with the volum on the guitar turned low
and as soon as u hammer on with ur left(/right hand if ur a lefty)
and DON'T play the string with ur right hand, just turn the volum
up slowly and then turn it back down, this is what i do and it works
grate):

d:--------------------------------------------------------------|
A:--------------------------------------------------------------|
F:--------------------------------------------------------------|
C:--------------------------------------------------------------|
G:--------------------------------------------------------------|
C:--12h---8h--------------10h------------------7h---------------|

d:-------------------------------------------------------------|
A:-------------------------------------------------------------|
F:-------------------------------------------------------------|
C:------------------------12h----10h---------------------------|
G:----------------10h----------------------8h--------10h-------|
C:-------------------------------------------------------------|


A
d:---------------------------------------------------------------|
A:---------------------------------------------------------------|
F:---------------------------------------------------------------|
C:-----0-----0-----0-----0-----0-------0-----0-----0-----0-----0-|
G:---0-----0-----0-----0-----0-------0-----0-----0-----0-----0---|
C:-3-----2-----0-----0-----0-----0-5-----3-----2-----2-----2-----|

d:-------------------------------------------------------------------|
A:-------------------------------------------------------------------|
F:-------------------------------------------------------------------|
C:-------0-----0-----0-----0---0---0-----0-----0-----0-----0-----0---|
G:-----0-----0-----0-----0-------------0-----0-----0-----0-----0-----|
C:-2-3-----5-----7-----8-----7---5---3-----2-----0-----0-----0-----0-|


B
d:-------------------------------------------------------------------|
A:-------------------------------------------------------------------|
F:-------------------------------------------------------------------|
C:------0------0-----0-----0-----0--------0------0-----0-----0-----0-|
G:----0------0-----0-----0-----0--------0------0-----0-----0-----0---|
C:-12-----10-----7-----7-----7-----7-14-----10-----7-----7-----7-----|

d:-------------------------------------------------------------------------------|
A:-------------------------------------------------------------------------------|
F:-------------------------------------------------------------------------------|
C:--------0------0------0------0----0----0------0------0------0------0------0----|
G:------0------0------0------0----------------0------0------0------0------0------|
C:-7-12-----14-----15-----17-----15---14---12-----10-----12-----12-----12-----12-|        



C                                           pm..    ....    ....   ....
d:-------------------|--------------------|-------------------------------|
A:-------------------|--------------------|-------------------------------|
F:-------------------|--------------------|------12------10------9------7-|
C:-8--88--88--88-8-8-|-8--88--88--88-8888-|-0000----0000----0000---0000---|
D:-8--88--88--88-8-8-|-8--88--88--88-8888-|-0000-10-0000-8--0000-7-0000-5-|
C:-8--88--88--88-8-8-|-8--88--88--88-8888-|-0000----0000----0000---0000---|


D
d:-------------------|--------------------|
A:-------------------|--------------------|
F:-------------------|--------------------|
C:-8--88--88--88-8-8-|-8--88--88--88-8888-|
D:-8--88--88--88-8-8-|-8--88--88--88-8888-|
C:-8--88--88--88-8-8-|-8--88--88--88-8888-|


E
d:-------------------|--------------------|-----------------|----------------|
A:-------------------|--------------------|-----------------|----------------|
F:-------------------|--------------------|-----------------|----------------|
C:-8--88--88--88-8-8-|-8--88--88--88-8888-|-7-7-7-7-7-7-7-7-|7-8-7-8-7-8-7-8-|
D:-8--88--88--88-8-8-|-8--88--88--88-8888-|-7-7-7-7-7-7-7-7-|7-8-7-8-7-8-7-8-|
C:-8--88--88--88-8-8-|-8--88--88--88-8888-|-7-7-7-7-7-7-7-7-|7-8-7-8-7-8-7-8-|


F
d:-----------------------------------|
A:-----------------------------------|
F:-----------------------------------|
C:-3-2-0---5-3-2---3-5-7-8-7-5-3-2-0-|
D:-3-2-0---5-3-2---3-5-7-8-7-5-3-2-0-|
C:-3-2-0---5-3-2---3-5-7-8-7-5-3-2-0-|


ORDER:
=====

Cello
A
B
C 3x
D
A 2x
C 3x
E
F 3x
A 4x

Tap to rate this tab
 
# A B C D E F G H I J K L M N O P Q R S T U V W X Y Z