Song name
# A B C D E F G H I J K L M N O P Q R S T U V W X Y Z

System Of A Down - Marmalade tab

Artist: System of a Down
Song : Marmalade
Tunning : C-G-C-F-A-D
Transcribed by: Aloys



D|------------------------------------|--------------------------------|
A|------------------------------------|--------------------------------|
F|------------------------------------|--------------------------------|
C|-7-7-10-7-7-7-10-7-7-7-10-7-7-7-10-7|-6-6-9-6-6-6-9-6-6-6-9-6-6-6-9-6|
G|------------------------------------|--------------------------------|
C|------------------------------------|--------------------------------|



|-----------------------------------------|-------------------------------------|
|-----------------------------------------|-------------------------------------|
|-----------10-10-9-9-----------10-10-9-9-|---------10-10-9-9---------10-10-9-9-|
|-7-7-10-10-----------7-7-10-10-----------|-6-6-9-9-----------6-6-9-9-----------|
|-----------------------------------------|-------------------------------------|
|-----------------------------------------|-------------------------------------|



|----------------------------------------------------------------|
|----------------------------------------------------------------|
|----------------------------------------------------------------|
|-----------------------------3--------------1-------------------|
|-0-0-3-3-1-1-----0-0-3-3-1-1----0-0-3-3-1-1----0-0-3-3-1-1------|
|-------------2-2-------------------------------------------2-2--|

|--------------------------------------------------------------|
|--------------------------------------------------------------|
|--------------------------------------------------------------|
|-----------------------------3--------------1-----------------|
|-0-0-3-3-1-1-----0-0-3-3-1-1----0-0-3-3-1-1----0-0-3-3-1-1----|
|-------------2-2-------------------------------------------2--|



|-----------------|-----------------|-----------------|-------------------|
|---5---5---5---5-|---5---5---5---5-|---5---5---5---5-|--5---5----555555\-|
|---5---5---5---5-|---5---5---5---5-|---5---5---5---5-|--5---5----555555\-|
|-----------------|-----------------|-----------------|-------------------|
|-----------------|-----------------|-----------------|-------------------|
|-----------------|-----------------|-----------------|-------------------|



PM. .    . . .    . . .    . . .    .   . .   . . .   . . .   . . .
|-------------------------------------|---------------------------------|
|-------------------------------------|---------------------------------|
|-------------------------------------|---------------------------------|
|-------------------------------------|---------------------------------|
|-7-7-10-7-7-7-10-7-7-7-10-7-7-7-10-7-|-6-6-9-6-6-6-9-6-6-6-9-6-6-6-9-9-|
|-7-7-10-7-7-7-10-7-7-7-10-7-7-7-10-7-|-6-6-9-6-6-6-9-6-6-6-9-6-6-6-9-9-|



|-----------------|-----------------|
|---5---5---5---5-|---5---5---5---5-|
|---5---5---5---5-|---5---5---5---5-|
|-----------------|-----------------|
|-----------------|-----------------|
|-----------------|-----------------|

|--------------------------------------------------------------|
|--------------------------------------------------------------|
|--------------------------------------------------------------|
|-----------------------------3--------------1-----------------|
|-0-0-3-3-1-1-----0-0-3-3-1-1----0-0-3-3-1-1----0-0-3-3-1-1----|
|-------------2-2-------------------------------------------2--|


PM................................................................................................
D|------------------------------------------------|-----------------------------------------------|
A|------------------------------------------------|-----------------------------------------------|
F|----10-9-10-----10-9-10-----10-9-10-----10-9-10-|----10-9-10-----10-9-10-----10-9-10-----10-9-10|
C|------------------------------------------------|-----------------------------------------------|
G|-12----------12----------12----------12---------|-12----------12----------12----------12--------|
C|------------------------------------------------|-----------------------------------------------|

A.H  .. . ..     .. . ..     .. . ..     .. . ..      .. . ..     .. . ..     .. . ..     .. . ..
|------------------------------------------------|------------------------------------------------|
|------------------------------------------------|------------------------------------------------|
|----10-9-10-----10-9-10-----10-9-10-----10-9-10-|----10-9-10-----10-9-10-----10-9-10-----10-9-10-|
|------------------------------------------------|------------------------------------------------|
|-12----------12----------12----------12---------|-12----------12----------12----------12---------|
|------------------------------------------------|------------------------------------------------|



Solo

D|--8--8--8--8--8--8--8--8-10-10-10-10-12-12-12-12-|-9-9-9-9-9-9-9-9-|
A|-10-10-10-10-10-10-10-10-12-12-12-12-13-13-13-13-|-7-7-7-7-7-7-7-7-|
F|-------------------------------------------------|-----------------|
C|-------------------------------------------------|-----------------|
G|-------------------------------------------------|-----------------|
C|-------------------------------------------------|-----------------|

|-12-12-12-12-10-10-10-10-|--8--8--8--8--8--8--8--8-10-10-10-10-12-12-12-12-|
|-13-13-13-13-12-12-12-12-|-10-10-10-10-10-10-10-10-12-12-12-12-13-13-13-13-|
|-------------------------|-------------------------------------------------|
|-------------------------|-------------------------------------------------|
|-------------------------|-------------------------------------------------|
|-------------------------|-------------------------------------------------|

|-9-9-9-9-9-9-9-9-12-12-12-12-10-10-10-10-|-------------------------|
|-7-7-7-7-7-7-7-7-13-13-13-13-12-12-12-12-|-10-10-12-12-13-13-12-12-|
|-----------------------------------------|-------------------------|
|-----------------------------------------|-------------------------|
|-----------------------------------------|-------------------------|
|-----------------------------------------|-------------------------|

|-------------------------|-----------------------------------------------|
|-15-15-13-13-12-12-13-12-|-9-9-10-10-12-12-10-10-13-13-12-12-10-10-12-12-|
|-------------------------|-----------------------------------------------|
|-------------------------|-----------------------------------------------|
|-------------------------|-----------------------------------------------|
|-------------------------|-----------------------------------------------|

|-------------------------------------------------|-----------------------|
|-10-10-12-12-13-13-12-12-15-15-13-13-12-12-13-12-|-8-8-10-10-12-12-10-10-|
|-------------------------------------------------|-----------------------|
|-------------------------------------------------|-----------------------|
|-------------------------------------------------|-----------------------|
|-------------------------------------------------|-----------------------|

|-12-12-10-10-13-13-12\-|
|-----------------------|
|-----------------------|
|-----------------------|
|-----------------------|
|-----------------------|


 
  3x:                       1x:
|-----------------|---------------|
|-x-x-x-x-x-x-x-x-|-x-x-x-x-x-x-x-|
|-x-x-x-x-x-x-x-x-|-x-x-x-x-x-x-x-|
|-----------------|---------------|
|-----------------|---------------|
|-----------------|---------------|



PM...............................................
|------------------------------------------------|----|
|------------------------------------------------|----|
|----10-9-10-----10-9-10-----10-9-10-----10-9-10-|----|
|------------------------------------------------|----|
|-12----------12----------12----------12---------|-11-|
|------------------------------------------------|-11-|
Tap to rate this tab
 
# A B C D E F G H I J K L M N O P Q R S T U V W X Y Z