System Of A Down - Soldier Side tab

		             Soldier Side (Intro)
                                                            System of a Down


                 ^                        
      E.  T T    Q    Q    E  E  E.  T T  
D#||----------|--------------------------|
A#||----------|--------------------------|
F#||----------|--2---------2--3--2-------|
C#||----------|--0-----------------------|
G#||--------0-|------------------------2-|
C#||------3---|-------3--------------2---|


  ^                                                 
  Q    Q    Q    Q        Q    E  E  S  S  Q    E   
-----------------------|---------------------------|
-----------------------|---------------------------|
--1---------1----------|-------3--5--5S-7S-5----3--|
--0--------------------|---------------------------|
-----------------------|---------------------------|
-------2---------2S----|--5------------------------|


                            ^                    
  Q    Q    Q    E.  T T    Q    Q    Q    Q     
-------------------------|----------------------|
-------------------------|----------------------|
--2---------2------------|--1---------1---------|
-------------------------|--0-------------------|
-----------------------2-|----------------------|
-------0---------0---2---|-------2---------2----|


  Q    Q    Q    Q       Q    Q    Q    Q     
----------------------|----------------------|
----------------------|------------2---------|
------------1---------|----------------------|
--2-------------------|-------2---------2----|
----------------------|--0-------------------|
-------2---------2----|----------------------|


  E  E  S  E.  Q    Q       H        Q    Q     
-------------------------|---------------------|
--2--3--3S-5---5---------|---------------------|
-------------------------|-----------2---------|
-------------------------|---------------------|
-------------------------|---------------------|
--------------------0----|--3-------------3----|


  H        Q    Q       H        Q    Q      
---------------------|----------------------|
---------------------|----------------------|
-----------1---------|-----------3----------|
---------------------|----------------------|
---------------------|----------------------|
--2-------------2----|--5-------------5S----|


  H        Q    Q       H        Q    Q     
---------------------|---------------------|
---------------------|---------------------|
-----------2---------|-----------1---------|
----------------0----|---------------------|
---------------------|---------------------|
--0------------------|--2-------------2----|


  Q    Q    Q    Q       Q    Q    Q    Q     
----------------------|----------------------|
----------------------|------------2---------|
------------1---------|-----------------2----|
--2-------------------|-------2--------------|
----------------------|--0-------------------|
-------2---------2----|----------------------|


  E  E  S  E.  Q    Q       H        Q    Q     
-------------------------|---------------------|
--2--3--3S-5---5---------|---------------------|
-------------------------|-----------2---------|
-------------------------|---------------------|
-------------------------|---------------------|
--------------------0----|--3-------------3----|


  H        Q    Q       H        Q    Q      
---------------------|----------------------|
---------------------|----------------------|
-----------1---------|-----------3----------|
---------------------|----------------------|
---------------------|----------------------|
--2-------------2----|--5-------------5S----|


  H        Q    Q       H        Q    Q     
---------------------|---------------------|
---------------------|---------------------|
-----------2---------|-----------1---------|
----------------0----|---------------------|
---------------------|---------------------|
--0------------------|--2-------------2----|


  Q    Q    Q    Q       Q    Q    Q    Q     
----------------------|----------------------|
----------------------|------------2---------|
------------1---------|-----------------2----|
--2-------------------|-------2--------------|
----------------------|--0-------------------|
-------2---------2----|----------------------|


                            ^                     
  E  E  S  E.  Q    Q       Q    Q    E  E  Q     
-------------------------|--5---------5--6--5----|
--2--3--3S-5---5---------|--3--------------------|
-------------------------|--2--------------------|
-------------------------|-------3---------------|
-------------------------|-----------------------|
--------------------0----|-----------------------|


  ^                                                     
  Q    Q    Q    Q        Q    E   E   S   S   Q    E   
--4---------4----------|-------6---8---8S-10S--8----6--|
--5--------------------|-------8--10--10S-11S-10----8--|
--4--------------------|-------------------------------|
-------2---------2S----|--5----------------------------|
-----------------------|-------------------------------|
-----------------------|-------------------------------|


                         ^                    
  Q    Q    Q    Q       Q    Q    Q    Q     
--5---------5---------|--2---------4---------|
----------------------|--5-------------------|
----------------------|--4-------------------|
-------3---------3----|--2----2---------2----|
----------------------|----------------------|
----------------------|----------------------|


  Q    Q    Q    Q        Q     Q    Q    Q     
------------4---------|------------------------|
--5-------------------|--(6)---------5---------|
----------------------|---------2---------2----|
-------2---------2----|------------------------|
----------------------|---0--------------------|
----------------------|------------------------|


  W                                                         
--5----------------||
-------------------||
-------------------||
-------------------||
-------------------||
-------------------||





Duration Legend
---------------
W - whole
H - half
Q - quarter
E - 8th
S - 16th
T - 32nd
X - 64th
. - note dotted
|-n-|  - n-tuplets


Tablature Legend
----------------
L - tied note
x - dead note
g - grace note
(n) - ghost note
> - accentuded note
NH - natural harmonic
AH - artificial harmonic
TH - tapped harmonic
SH - semi harmonic
PH - pitch harmonic
h - hammer on
p - pull off
b - bend
br - bendRelease
pb - preBend
pbr - preBendRelease
brb - bendReleaseBend
\n/ - tremolo bar dip
\n - tremolo bar dive
-/n - tremolo bar Release up
/n\ - tremolo bar inverted dip
/n - tremolo bar return
-\n - tremolo bar Release down
S - shift slide
s - legato slide
/ -  slide into from below or out of upwards
\ -  slide into from above or out of downwards
~ - vibrato
W - wide vibrato
tr - trill
TP - tremolo picking
T - tapping
S - slap
P - pop
< - fade in
^ - brush up
v - brush down

Generated Using Guitar Pro 5		
Tap to rate this tab
 
# A B C D E F G H I J K L M N O P Q R S T U V W X Y Z