Song name
# A B C D E F G H I J K L M N O P Q R S T U V W X Y Z

System Of A Down - Aerials tab

Drop C tuning:
C
G
C
G
B
E

1:
|---------------|----------------|---------------|------------------|
|---------------|----------------|---------------|------------------|
|---------------|----------------|---------------|------------------|
|----0-----0----|0-----0-----0---|----0-----0----|0-----0-----0-----|
|--0-----0-----0|----0-----0-----|--0-----0-----0|----0-----0-------|
|3-----2-----0--|--0-----0----0--|5-----3-----2--|--2-----2-----2-3-|

|---------------|----------------|---------------|------------|
|---------------|----------------|---------------|------------|
|---------------|----------------|---------------|------------|
|--0-----0-----0|----0---0-------|--0-----0-----0|-----0-----0|
|0-----0-----0--|--0---------0---|0-----0-----0--|---0-----0--|
|----5-----7----|8-----7---5---3-|----2-----0----|-0-----0----|

2:
|-----------|---------------|----------------|---------------|------------------|
|-----------|---------------|----------------|---------------|------------------|
|-----------|---------------|----------------|---------------|------------------|
|-------0---|---0-----0-----|0-----0--------0|------0-----0--|---0-----0--------|
|-----0-----|-0-----0-----0-|----0--------0--|----0-----0----|-0-----0--------0-|
|0-12-----10|-----7-----7---|--7-----7-14----|-10-----7-----7|-----7-----7-12---|

|---------------|----------------|---------------|------------------|------------------|
|---------------|----------------|---------------|------------------|------------------|
|---------------|----------------|---------------|------------------|------------------|
|0------0------0|------0------0--|----------0----|--0-------0------0|------0-----------|
|-----0------0--|----0-----------|---0----0------|0-------0------0--|----0-------------|
|--14-----15----|-17-----15------|14---12-----10-|-----12-----12----|-12---------------|

3:
|---------------| (play along with lyrics - repeat as needed through verse)
|---------------|
|---------------|
|-8-------------|
|-8-------------|
|-8-------------|

4:
|---------------|----------------|---------------|------------------|
|---------------|----------------|---------------|------------------|
|---------12----|--------10------|---------------|------------------|
|---------12----|--------10------|---------9-----|---------7--------|
|---------10----|--------8-------|---------9-----|---------7--------|
|-0-0-0-0-------|0-0-0-0---------|0-0-0-0--7-----|0-0-0-0--5--------|

5:
|---------------|----------------|
|---------------|----------------|
|8---8---8---8--|-7-7-7-7-7-7-7-7|
|8---8---8---8--|-7-7-7-7-7-7-7-7|
|8-8-8-8-8-8-8-8|-7-7-7-7-7-7-7-7|
 Looooooooooose!  Oooooooooooooh!

6:
|---------------|----------------|---------------|------------------|
|---------------|----------------|---------------|------------------|
|3--2--0--------|5--3--2---------|3--5--7--8--7--|5--3--2--0--------|
|3--2--0--------|5--3--2---------|3--5--7--8--7--|5--3--2--0--------|
|3--2--0--------|5--3--2---------|3--5--7--8--7--|5--3--2--0--------|

7:
|---------------|----------------|---------------|------------------|
|---------------|----------------|---------------|------------------|
|---------------|----------------|---------------|------------------|
|----0-----0----|0-----0-----0---|----0-----0----|0-----0-----0-----|
|--0-----0-----0|----0-----0-----|--0-----0-----0|----0-----0-------|
|3-----2-----0--|--0-----0----0--|5-----3-----2--|--2-----2-----2-3-|

|---------------|----------------|---------------|
|---------------|----------------|---------------|
|---------------|----------------|---------------|
|--0-----0-----0|----0---0-------|--0-----0------|
|0-----0-----0--|--0---------0---|0-----0--------|
|----5-----7----|8-----7---5---3-|----2-----0----|

Order:
1: x 1
2: x 1
3: x 1--------------\
4: x 1               \
3: x 1                \
4: x 1                / #8
3: x 1               / 
4: x 1--------------/
3: x 1
4: x 1
1: x 2
8: x 1
5: x 1
6: x 3
1: x 3
7: x 1

ENJOY!
Tap to rate this tab
# A B C D E F G H I J K L M N O P Q R S T U V W X Y Z