Song name
# A B C D E F G H I J K L M N O P Q R S T U V W X Y Z

System Of A Down - Suite-pee tab

ARTIST: System Of A Down
TITLE : Suite-Pee
ALBUM : System Of A Down

TUNING: Drop C (lowest to highest: CGCFAD)

I’m not sure about the opening, so just tremolo this really fast:

|-15-|----|----|----|-15-|----|----|----|
|----|-15-|----|-15-|----|-15-|----|-15-|
|----|----|-14-|----|----|----|-14-|----|
|----|----|----|----|----|----|----|----|
|----|----|----|----|----|----|----|----|
|----|----|----|----|----|----|----|----|


Chorus Riff
|-----------------|      |-----------------|
|-----------------|      |-----------------|
|-----------------| PLAY |-----------------|
|-4-4-4-4-5-4-5---| 3X   |-4-4-4-4-12/-4^5-|
|-5-5-5-5-6-5-6---|      |-5-5-5-5-12/-5^6-|
|-----------------|      |-----------------|
 “Try her philosophy”      “Try”



Verse Riff
|-------------10^12-|
|-------------------|
|-7-7-7-7-8-7-------| PLAY
|-------------------| 8X
|-------------------|
|-------------------|
 “I had an outer-body experience the other day...”
 “The following of a Christ”
 “The falling of Christ”


Bridge Riff
|---------------|-----------------|
|---------------|-----------------|
|---------------|-----------------| PLAY
|-0-1-0---0---5-|-4---------------| 4X
|-0-1-0---0---5-|-4---------------|
|-0-1-0---0---5-|-4---------------|
Palm mute for “Lie naked on the floor...”



|----------------|------------------|----------------|---------14^15^14-|
|----------------|------------------|----------------|------------------|
|-7-8-7---7---12-|11-------11^12^11-|-7-8-7---7---12-|11----------------|
|----------------|------------------|----------------|------------------|
|-5-6-5---5---10-|-9----------------|-5-6-5---5---10-|-9----------------|
|----------------|------------------|----------------|------------------|
 “I       wanna   fuck     my         way to the garden            cause”

|----------------|------------------|----------------|------------------|
|----------------|------------------|----------------|------------------|
|-7-8-7---7---12-|11-------11^12^11-|-7-8-7---7---12-|11----------------|
|----------------|------------------|----------------|------------------|
|-5-6-5---5---10-|-9----------------|-5-6-5---5---10-|-9----------------|
|----------------|------------------|----------------|------------------|
 everyone          needs          a   mother..........FUCKER!!!!!!!!!!!!”


And that’s it! :)  Not much to memorize, but if you are a beginner, this song
could take quite a bit of practice because it is so fast in most parts.

But if you are an expert, add fills everywhere!!! This song is PERFECT for the
beginning of a gig because it leaves opportunities for so many fills.  Fills
tend to help attract the audience, and they definitely make you feel all good
inside ;)


              ****
              *****
              ******              Lucas
              ***                 “I give you the peace and 
              ***                 you give me the love”
      ***********   *******
      ***********   ********
      ***********   *********
       **
        *********
            *****
            *****
            *****
            *****
            *****
            *****
            *****
             ****
              ***
               **
                *
Tap to rate this tab
# A B C D E F G H I J K L M N O P Q R S T U V W X Y Z