Song name
# A B C D E F G H I J K L M N O P Q R S T U V W X Y Z

System Of A Down - Peephole tab

E||--------------------------------------|
B||--------1--------1--------1--------1--|
G||-----1--------1--------1--------1-----|
D||--3--------3--------------------------|
A||--------------------2--------3--------|
E||--------------------------------------|


                                                                              
--------------------------------------|--------------------------------------|
--------1--------1--------1--------1--|--------1--------1--------1--------1--|
-----1--------1--------1--------1-----|-----1--------1--------1--------1-----|
--------------------------------------|--3--------3--------------------------|
--------------------2--------3--------|--------------------2--------3--------|
--3--------3--------------------------|--------------------------------------|


                                                                              
--------------------------------------||-----1--1----1--1----1--1----1--1---||
--------1--------1--------1--------1--||-----1--1----1--1----1--1----1--1---||
-----1--------1--------1--------1-----||*----1--1----1--1----1--1----1--1--*||
--------------------------------------||*----------------------------------*||
--------------------2--------3--------||------------------------------------||
--3--------3--------------------------||------------------------------------||


                                                                              
--------------------------------------||-----1--1----1--1----1--1----1--1---||
--------------------------------------||-----1--1----1--1----1--1----1--1---||
--------------------------------------||*----1--1----1--1----1--1----1--1--*||
--2--2--2--2--2--2--5--5--5--5--5--5--||*----------------------------------*||
--2--2--2--2--2--2--5--5--5--5--5--5--||------------------------------------||
--0--0--0--0--0--0--3--3--3--3--3--3--||------------------------------------||


                                                                              
--------------------------------------|--1--1--1--1--1--1--7--7--7--8--8--8--|
--------------------------------------|--------------------------------------|
--------------------------------------|--------------------------------------|
--2--2--2--2--2--2--5--5--5--5--5--5--|--------------------------------------|
--2--2--2--2--2--2--5--5--5--5--5--5--|--------------------------------------|
--0--0--0--0--0--0--3--3--3--3--3--3--|--------------------------------------|


                                                                              
--3--3--3--3--3--3--7--7--7--8--8--8--|--1--1--1--1--1--1--7--7--7--8--8--8--|
--------------------------------------|--------------------------------------|
--------------------------------------|--------------------------------------|
--------------------------------------|--------------------------------------|
--------------------------------------|--------------------------------------|
--------------------------------------|--------------------------------------|


                                             
--11--11--11--11--11--11--9--9--9--9--9--9--|
--------------------------------------------|
--------------------------------------------|
--------------------------------------------|
--------------------------------------------|
--------------------------------------------|


                                                                              
--------------------------------------|--------------------------------------|
--------------------------------------|--------------------------------------|
--------------------4--4-4-4-5--5-5-5-|--------------------4--4-4-4-5--5-5-5-|
--3--3-3-3-3--3-3-3-4--4-4-4-5--5-5-5-|--5--5-5-5-5--5-5-5-4--4-4-4-5--5-5-5-|
--3--3-3-3-3--3-3-3-2--2-2-2-3--3-3-3-|--5--5-5-5-5--5-5-5-2--2-2-2-3--3-3-3-|
--1--1-1-1-1--1-1-1-------------------|--3--3-3-3-3--3-3-3-------------------|


                                                                              
--------------------------------------|--------------------------------------|
--------------------------------------|--------------------------------------|
--------------------4--4-4-4-5--5-5-5-|--8--8--8--8--8--8--6--6--6--6--6--6--|
--3--3-3-3-3--3-3-3-4--4-4-4-5--5-5-5-|--8--8--8--8--8--8--6--6--6--6--6--6--|
--3--3-3-3-3--3-3-3-2--2-2-2-3--3-3-3-|--6--6--6--6--6--6--4--4--4--4--4--4--|
--1--1-1-1-1--1-1-1-------------------|--------------------------------------|


                                                                              
--------------------------------------|--------------------------------------|
--------1--------1--------1--------1--|--------1--------1--------1--------1--|
-----1--------1--------1--------1-----|-----1--------1--------1--------1-----|
--3--------3--------------------------|--------------------------------------|
--------------------2--------3--------|--------------------2--------3--------|
--------------------------------------|--3--------3--------------------------|


                                                                              
--------------------------------------|--------------------------------------|
--------1--------1--------1--------1--|--------1--------1--------1--------1--|
-----1--------1--------1--------1-----|-----1--------1--------1--------1-----|
--3--------3--------------------------|--------------------------------------|
--------------------2--------3--------|--------------------2--------3--------|
--------------------------------------|--3--------3--------------------------|


                                                                              
|-----1--1----1--1----1--1----1--1---||--------------------------------------|
|-----1--1----1--1----1--1----1--1---||--------------------------------------|
|*----1--1----1--1----1--1----1--1--*||--------------------------------------|
|*----------------------------------*||--2--2--2--2--2--2--5--5--5--5--5--5--|
|------------------------------------||--2--2--2--2--2--2--5--5--5--5--5--5--|
|------------------------------------||--0--0--0--0--0--0--3--3--3--3--3--3--|


                                                                              
|-----1--1----1--1----1--1----1--1---||--------------------------------------|
|-----1--1----1--1----1--1----1--1---||--------------------------------------|
|*----1--1----1--1----1--1----1--1--*||--------------------------------------|
|*----------------------------------*||--2--2--2--2--2--2--5--5--5--5--5--5--|
|------------------------------------||--2--2--2--2--2--2--5--5--5--5--5--5--|
|------------------------------------||--0--0--0--0--0--0--3--3--3--3--3--3--|


                                                                              
--1--1--1--1--1--1--7--7--7--8--8--8--|--3--3--3--3--3--3--7--7--7--8--8--8--|
--------------------------------------|--------------------------------------|
--------------------------------------|--------------------------------------|
--------------------------------------|--------------------------------------|
--------------------------------------|--------------------------------------|
--------------------------------------|--------------------------------------|


                                       
--1--1--1--1--1--1--7--7--7--8--8--8--|
--------------------------------------|
--------------------------------------|
--------------------------------------|
--------------------------------------|
--------------------------------------|


                                             
--11--11--11--11--11--11--9--9--9--9--9--9--|
--------------------------------------------|
--------------------------------------------|
--------------------------------------------|
--------------------------------------------|
--------------------------------------------|


                                                                              
--------------------------------------|--------------------------------------|
--------------------------------------|--------------------------------------|
--------------------4--4-4-4-5--5-5-5-|--------------------4--4-4-4-5--5-5-5-|
--3--3-3-3-3--3-3-3-4--4-4-4-5--5-5-5-|--5--5-5-5-5--5-5-5-4--4-4-4-5--5-5-5-|
--3--3-3-3-3--3-3-3-2--2-2-2-3--3-3-3-|--5--5-5-5-5--5-5-5-2--2-2-2-3--3-3-3-|
--1--1-1-1-1--1-1-1-------------------|--3--3-3-3-3--3-3-3-------------------|


                                                                              
--------------------------------------|--------------------------------------|
--------------------------------------|--------------------------------------|
--------------------4--4-4-4-5--5-5-5-|--8--8--8--8--8--8--6--6--6--6--6--6--|
--3--3-3-3-3--3-3-3-4--4-4-4-5--5-5-5-|--8--8--8--8--8--8--6--6--6--6--6--6--|
--3--3-3-3-3--3-3-3-2--2-2-2-3--3-3-3-|--6--6--6--6--6--6--4--4--4--4--4--4--|
--1--1-1-1-1--1-1-1-------------------|--------------------------------------|


                                                                         
-------------------------------|----------------------------------------|
-------------------------------|----------------------------------------|
-------------------------------|----5--6--5h6h5-3-5----5--6--5h6h5-3-5--|
--6--6--6--6--6--6--5----------|----------------------------------------|
--4--4--4--4--4--4--3----------|----------------------------------------|
-------------------------------|----------------------------------------|


                                                                             
-------------------------------------|--------------------------------------|
-------------------------------------|--------------------------------------|
----5--6--5--3--5--3--1--0--1--0-----|--------------------------------------|
----------------------------------3--|--2--2--2--2--2--2--5--5--5--5--5--5--|
-------------------------------------|--2--2--2--2--2--2--5--5--5--5--5--5--|
-------------------------------------|--0--0--0--0--0--0--3--3--3--3--3--3--|


                                                                               
----8--9--8h9h8-6-8----8--9--8h9h8-6-8--|----8--9--8--6--8--6--4--3--4--3--1--|
----------------------------------------|-------------------------------------|
----------------------------------------|-------------------------------------|
----------------------------------------|-------------------------------------|
----------------------------------------|-------------------------------------|
----------------------------------------|-------------------------------------|


                                       
--------------------------------------|
--------------------------------------|
--------------------------------------|
--2--2--2--2--2--2--5--5--5--5--5--5--|
--2--2--2--2--2--2--5--5--5--5--5--5--|
--0--0--0--0--0--0--3--3--3--3--3--3--|


                                                 
-----8---8---8---8---8------7---7---7---7---7---|
--6----6---6---6---6---6-5----5---5---5---5---5-|
------------------------------------------------|
------------------------------------------------|
------------------------------------------------|
------------------------------------------------|


                                    
-------6--8----6-------4--6--4-----|
--4---------------2-------------2--|
-----------------------------------|
-----------------------------------|
-----------------------------------|
-----------------------------------|


                                                 
-----8---8---8---8---8------7---7---7---7---7---|
--6----6---6---6---6---6-5----5---5---5---5---5-|
------------------------------------------------|
------------------------------------------------|
------------------------------------------------|
------------------------------------------------|


                                                                           
-------6--8----6-------4--6--4-----|--------------------------------------|
--4---------------2-------------2--|--------------------------------------|
-----------------------------------|--------------------4--4-4-4-5--5-5-5-|
-----------------------------------|--3--3-3-3-3--3-3-3-4--4-4-4-5--5-5-5-|
-----------------------------------|--3--3-3-3-3--3-3-3-2--2-2-2-3--3-3-3-|
-----------------------------------|--1--1-1-1-1--1-1-1-------------------|


                                                                              
--------------------------------------|--------------------------------------|
--------------------------------------|--------------------------------------|
--------------------4--4-4-4-5--5-5-5-|--------------------4--4-4-4-5--5-5-5-|
--5--5-5-5-5--5-5-5-4--4-4-4-5--5-5-5-|--3--3-3-3-3--3-3-3-4--4-4-4-5--5-5-5-|
--5--5-5-5-5--5-5-5-2--2-2-2-3--3-3-3-|--3--3-3-3-3--3-3-3-2--2-2-2-3--3-3-3-|
--3--3-3-3-3--3-3-3-------------------|--1--1-1-1-1--1-1-1-------------------|


                                        
--------------------------------------||
--------------------------------------||
--8--8--8--8--8--8--6--6--6--6--6--6--||
--8--8--8--8--8--8--6--6--6--6--6--6--||
--6--6--6--6--6--6--4--4--4--4--4--4--||
--------------------------------------||
Tap to rate this tab
 
# A B C D E F G H I J K L M N O P Q R S T U V W X Y Z