Song name
# A B C D E F G H I J K L M N O P Q R S T U V W X Y Z

System Of A Down - Marmalade tab

-------------------------------------------------------------------------------
			     MARMALADE - System of a Down
-------------------------------------------------------------------------------
Tabbed by: Luis Gustavo Hernández Collado
Email:ltavo_87@hotmail.com

Tuning:DADGBe

Intro
e|-----------------------------------------------------|
B|-----------------------------------------------------|
G|----3------3------3------3----2------2------2------2-|X4
D|-55---5-55---5-55---5-55---44---4-44---4-44---4-44---|
A|-----------------------------------------------------|
D|-----------------------------------------------------|

e|-------------------------------------------------|
B|-------44-33-------44-33-------44-33-------44-33-|
G|----33----------33----------22----------22-------|X4
D|-55----------55----------44----------44----------|
A|-------------------------------------------------|
D|-------------------------------------------------|

Verse 1
(Stretching, filing, against her skin...)
e|---------------------------------------------|
B|---------------------------------------------|
G|---------------------------------------------|X2
D|---------------------------------------------|
A|---------------------6----------4------------|
D|-55-88-77-0-55-88-77---55-88-77---55-88-77-0-|

(Foolsome flesh allowances...)
e|------|
B|---11-|
G|---8--|X12
D|-8----|
A|------|
D|------|

e|----------|
B|-11111111-|
G|-8-8-8-8--|
D|-8-8-8-8--|
A|----------|
D|----------|

Chorus 1
(Custard dreams, abusing, musing...)
e|-----------------------------------------|
B|-----------------------------------------|
G|-----------------------------------------|X2 
D|-5585-5585-5585-5585-4474-4474-4474-4474-|
A|-5585-5585-5585-5585-4474-4474-4474-4474-|
D|-5585-5585-5585-5585-4474-4474-4474-4474-|

(...Am I...)
e|-------------------------------------------------|
B|-------44-33-------44-33-------44-33-------44-33-|
G|----33----------33----------22----------22-------|X2
D|-55----------55----------44----------44----------|
A|-------------------------------------------------|
D|-------------------------------------------------|

Verse 2
(Actors of the tragic phantoms...)
e|------|
B|---11-|
G|---8--|X8
D|-8----|
A|------|
D|------|

e|---------------------------------------------|
B|---------------------------------------------|
G|---------------------------------------------|
D|---------------------------------------------|
A|---------------------6----------4------------|
D|-55-88-77-0-55-88-77---55-88-77---55-88-77-0-|

Chorus 2
(If today I die I can't deny...)
e|-----------------------------------------|
B|-----------------------------------------|
G|-----------------------------------------|X2 
D|-5585-5585-5585-5585-4474-4474-4474-4474-|
A|-5585-5585-5585-5585-4474-4474-4474-4474-|
D|-5585-5585-5585-5585-4474-4474-4474-4474-|

(...Tonight!...)
e|-------------------------------------------------|
B|-------44-33-------44-33-------44-33-------44-33-|
G|----33----------33----------22----------22-------|X2
D|-55----------55----------44----------44----------|
A|-------------------------------------------------|
D|-------------------------------------------------|

Interlude
e|-------------------------------------------------------------|
B|-------------------------------------------------------------|
G|---7-8-7---7-8-7---7-8-7---7-8-7--7-8-7--7-8-7--7-8-7--7-8-7-|
D|-------------------------------------------------------------|
A|-10------10------10------10------9------9------9------9------|
D|-------------------------------------------------------------|

e|---10-11-10---10-11-10---10-11-10---10-11-10-|
B|---------------------------------------------|
G|-12---------12---------12---------12---------|
D|---------------------------------------------|
A|---------------------------------------------|
D|---------------------------------------------|

e|---10-11-10---10-11-10---10-11-10---10-11-10-|
B|---------------------------------------------|
G|-11---------11---------11---------11---------|
D|---------------------------------------------|
A|---------------------------------------------|
D|---------------------------------------------|

Solo
e|-----------------------------------|
B|-8888/10-10/11-11/7777/11-11/10-10-|
G|-xxxx/x--x-/x--x-/xxxx/x--x-/x--x--|X2
D|-8888/10-10/11-11/7777/11-11/10-10-|
A|-----------------------------------|
D|-----------------------------------|

e|-----------------------------------------------|
B|-8-8-10-10-11-11-10-10-13-13-11-11-10-10-11-11-|
G|-----------------------------------------------|
D|-----------------------------------------------|
A|-----------------------------------------------|
D|-----------------------------------------------|

e|-----------------------------------------|
B|-7-7-8-8-10-10-8-8-11-11-10-10-8-8-10-10-|
G|-----------------------------------------|
D|-----------------------------------------|
A|-----------------------------------------|
D|-----------------------------------------|

e|-----------------------------------------------|
B|-8-8-10-10-11-11-10-10-13-13-11-11-10-10-11-11-|
G|-----------------------------------------------|
D|-----------------------------------------------|
A|-----------------------------------------------|
D|-----------------------------------------------|

e|-------------------10-10-8-8-11-11-|
B|-6-6-8-8-10-10-8-8-----------------|
G|-----------------------------------|
D|-----------------------------------|
A|-----------------------------------|
D|-----------------------------------|

Verse 3
(Borrowed dreams...)
e|------|
B|------|
G|-xxxx-|
D|-xxxx-|
A|-xxxx-|
D|------|

Chorus 3
(If today I die I can't deny...)
e|-----------------------------------------|
B|-----------------------------------------|
G|-----------------------------------------|X2 
D|-5585-5585-5585-5585-4474-4474-4474-4474-|
A|-5585-5585-5585-5585-4474-4474-4474-4474-|
D|-5585-5585-5585-5585-4474-4474-4474-4474-|

(...Tonight!...)
e|-------------------------------------------------|
B|-------44-33-------44-33-------44-33-------44-33-|
G|----33----------33----------22----------22-------|X2
D|-55----------55----------44----------44----------|
A|-------------------------------------------------|
D|-------------------------------------------------|

Outro
e|-----------------------------------|
B|---7-8-7---7-8-7---7-8-7---7-8-7---|
G|-----------------------------------|
D|-----------------------------------|
A|-10------10------10------10------9-|
D|-----------------------------------|
Tap to rate this tab
# A B C D E F G H I J K L M N O P Q R S T U V W X Y Z