Song name
# A B C D E F G H I J K L M N O P Q R S T U V W X Y Z

System Of A Down - Needles tab

Song: Needles
Artist: System of a Down
Album: Toxcity

Tuning: CGCFAD

This is my First Tab, So if theres any mistakes tell me, Mattside92@aol.com


Intro:
D|4p3---4p3---4p3---4p3---4p3---4p3---4p3---4p3-----|
A|----3-----3-----3-----3-----3-----3-----3-----3---|
F|--------------------------------------------------|
C|--------------------------------------------------|
G|--------------------------------------------------|
C|--------------------------------------------------|

Bridge:
D|----------------------------------------------------------|
A|----------------------------------------------------------|
F|----------------------------------------------------------|
C|----------------------------------------------------------|
G|-5-6-5-6-5-6-5-6--5-6-5-6-5-6-5-6-5--5-6-5-6-5-6-5-6-5----|
C|-5-6-5-6-5-6-5-6--5-6-5-6-5-6-5-6-5--5-6-5-6-5-6-5-6-5----|
 PM . . . . . . . .  . . . . . . . . .  . . . . . . . . .


Bridge: (Fast)
D|---------------------------------------------------|
A|---------------------------------------------------|
F|---------------------------------------------------|
C|---------------------------------------------------|
G|---------------------------------------------------|
C|-6p5p0-6p5p0-6p5p0-6p5p0--6p5p0-6p5p0-6p5p0-6p5p0--|


Verse:
D|------------------------------------------------------|
A|------------------------------------------------------|
F|------------------------------------------------------|
C|--5--6--5--6--5--6--5--6--5--6--5--6--5--6--5--6------|
G|--5--6--5--6--5--6--5--6--5--6--5--6--5--6--5--6------|
C|--5--6--5--6--5--6--5--6--5--6--5--6--5--6--5--6------|
 PM .  .  .  .  .  .  .  .  .  .  .  .  .  .  .  .   

Bridge:
D|---------------------------------------------------|
A|---------------------------------------------------|
F|---------------------------------------------------|
C|---------------------------------------------------|
G|---------------------------------------------------|
C|-6p5p0-6p5p0-6p5p0-6p5p0--6p5p0-6p5p0-6p5p0-6p5p0--|


Verse:
D|------------------------------------------------------|
A|------------------------------------------------------|
F|------------------------------------------------------|
C|--5--6--5--6--5--6--5--6--5--6--5--6--5--6--5--6------|
G|--5--6--5--6--5--6--5--6--5--6--5--6--5--6--5--6------|
C|--5--6--5--6--5--6--5--6--5--6--5--6--5--6--5--6------|
 PM .  .  .  .  .  .  .  .  .  .  .  .  .  .  .  .   


Chorus:
D|---------------|--------------|-----------------|------------------|
A|---------------|--------------|-----------------|------------------|
F|---------------|--------------|-----------------|----------------- |
C|---------------|--------------|-----------------|------------------|
G|--5------------|-1------------|-6-0------6-0----|-6-0-----6-0------|
C|--5------/12\--|-1------/12\--|-6-0------6-0----|-6-0-----6-0------|


Chorus (Continued) (2x)
D|----------------------------------------------------------|
A|----------------------------------------------------------|
F|----------------------------------------------------------|
C|---5--5h6-3--3h5-6--6h8-5--5-5----------------------------|
G|---5--5h6-3--3h5-6--6h8-5--5-5----------------------------|
C|---5--5h6-3--3h5-6--6h8-5--5-5----------------------------|


D|------------------------------------------------------|
A|------------------------------------------------------|
F|------------------------------------------------------|
C|--5--6--5--6--5--6--5--6--5--6--5--6--5--6--5--6------|
G|--5--6--5--6--5--6--5--6--5--6--5--6--5--6--5--6------|
C|--5--6--5--6--5--6--5--6--5--6--5--6--5--6--5--6------|
 PM .  .  .  .  .  .  .  .  .  .  .  .  .  .  .  .   


Solo:
D|-------------------------|-------------------------|
A|---4p3---4p3-------------|---3p2---3p2-------------|
F|---------------0-----0---|---------------0-----0---|
C|-5-----5---------4-----4-|-4-----4---------4-----4-|
G|-------------6-----6-----|-------------5-----5-----|
C|-------------------------|-------------------------|




Tap to rate this tab
 
# A B C D E F G H I J K L M N O P Q R S T U V W X Y Z