Song name
# A B C D E F G H I J K L M N O P Q R S T U V W X Y Z

System Of A Down - Suite-pee tab

Band: System Of A Down
Song: Suite-Pee
Album: System Of A DOwn
Tuning: CGCFAD
Tabber: skateguitarist
<#>=harmonic
x=mute string
b=bend string
PM_=palm mute

The entire song is with distortion.
Trust me on this song, I've seen him play it on an
interview and he also plays it like this live.
I tabbed it in order so it would be easier.
If you can't get the Intro to sound right it might be
because you suck!

Intro (0:00)
|-------------------------------------------------------|
|-------------------------------------------------------|
|-x6-x5-x4-x3-x2-x3-x4-x5-x6----------------------------|
|----------------------------x6-x5-x4-x3-x2-x3-x4-x5-x6-|
|-------------------------------------------------------|
|-------------------------------------------------------|

|-------------------------------------------------------|
|-------------------------------------------------------| Note: Don't play the chords
|-------------------------------------------------------| after the x! It's just there
|----------------------------x6-x5-x4-x3-x2-x3-x4-x5-x6-| to show you which fret you
|-x6-x5-x4-x3-x2-x3-x4-x5-x6----------------------------| should play on.
|-------------------------------------------------------| Play the Intro twice

Intro2/Chorus without singing (0:10)
|------------------------------------|
|------------------------------------|
|------------------------------------|
|-0000101-0000101-0000101-0000101-5b-|
|-0000101-0000101-0000101-0000101-5b-|
|-0000101-0000101-0000101-0000101----| X2

Verse1 (0:20)
|-----------------------------------|
|-----------------------------------| I'm not sure if he just bends the string
|-----------------------------------| or if he uses harmonics in the verses.
|-------------------------------20b-| You can figure that out yourself.
|-17171717181718-17171717181718-----| 
|-----------------------------------| x4

Chorus (0:30)
|------------------------------------|
|------------------------------------|
|------------------------------------|
|-0000101-0000101-0000101-0000101-5b-|
|-0000101-0000101-0000101-0000101-5b-|
|-0000101-0000101-0000101-0000101----| X2

Verse1 (0:40)
|-----------------------------------|
|-----------------------------------|
|-----------------------------------|
|-------------------------------20b-|
|-17171717181718-17171717181718-----|
|-----------------------------------| X4

Chorus (0:50)
|------------------------------------|
|------------------------------------|
|------------------------------------|
|-0000101-0000101-0000101-0000101-5b-|
|-0000101-0000101-0000101-0000101-5b-|
|-0000101-0000101-0000101-0000101----| X2

Verse2 (1:03)
|-----------|    |-----------|
|-----------|    |-----------|
|-----------|    |-----------|
|-01-0-0-54-|    |-01-0-0-54-|
|-01-0-0-54-|    |-01-0-0-54-|
|-01-0-0-54-| X3 |-01-0-0-54-| X1
PM                        --                           

|-----------|    |--------------------|    
|-----------|    |--------------------|    
|-----------|    |--------------------|    
|-01-0-0-54-|    |-01-0-0-54-<5>-<4>b-|    
|-01-0-0-54-|    |-01-0-0-54----------|    
|-01-0-0-54-| X3 |-01-0-0-54----------| X1 
PM-- - - --        -- - - --

|-----------|    |------------|
|-----------|    |------------|
|-----------|    |------------|
|-01-0-0-54-|    |-01-0-0-54~-|
|-01-0-0-54-|    |-01-0-0-54~-|
|-01-0-0-54-| X3 |-01-0-0-54~-| X1
PM-- - - --        -- - - -

|-----------|    
|-----------|    
|-----------|    
|-01-0-0-54-|    
|-01-0-0-54-|    
|-01-0-0-54-| X4 

verse3 (1:57)
|-----------------------------------|
|-----------------------------------|
|-5-6-5-5-10-9-9b--5-6-5-5-10-9-<9>-|
|-x-x-x-x--x-x-----x-x-x-x--x-x-----|
|-3-4-3-3--8-7-----3-4-3-3--8-7-----|
|-----------------------------------|

|--------------------------------|
|--------------------------------|
|-5-6-5-5-10-9-<9>--5-6-5-5-10-9-|
|-x-x-x-x--x-x-----x-x-x-x--x-x--|
|-3-4-3-3--8-7-----3-4-3-3--8-7--|
|--------------------------------|

Chorus without singing (2:10)
|------------------------------------|
|------------------------------------|
|------------------------------------|
|-0000101-0000101-0000101-0000101-5b-|
|-0000101-0000101-0000101-0000101-5b-|
|-0000101-0000101-0000101-0000101----| X2

Outro (2:20)
|--------------------------|
|--------------------------| He plays the harmonics VERY fast.
|--------------------------| If you listen carefully you will hear it too.
|----------------<20>-<20>-| 
|-17171717181718-----------| 
|--------------------------| X8
Tap to rate this tab
 
# A B C D E F G H I J K L M N O P Q R S T U V W X Y Z