Song name
# A B C D E F G H I J K L M N O P Q R S T U V W X Y Z

System Of A Down - Sugar tab

*)------------------------------------------------------------------------|
*)------------------------------------------------------------------------|
*)------------------------------------------------------------------------|
*)-0-7-6-5--0-7-6-5--0-7-6-5--0-7-6-5--0-7-6-5--0-7-6-5--0-7-6-5--0-7-6-5-|x2
*)-0-7-6-5--0-7-6-5--0-7-6-5--0-7-6-5--0-7-6-5--0-7-6-5--0-7-6-5--0-7-6-5-|
*)-0-7-6-5--0-7-6-5--0-7-6-5--0-7-6-5--0-7-6-5--0-7-6-5--0-7-6-5--0-7-6-5-|


*)-----13-13-12---------10/1-10/1-----------------------------------------|
*)--10-----------13--10---------------------------------------------------|
*)------------------------------------------------------------------------|
*)------------------------------------------------------------------------|x3
*)------------------------------------------------------------------------|
*)------------------------------------------------------------------------|


(i'm not sure how many times is each one)
*)-----13-13-13-13-13-13-13-12----------------10--10--10--10--10------------|
*)--10-------------------------13-13-13-10-10---10--10--10--10--------------|
*)--------------------------------------------------------------------------|
*)--------------------------------------------------------------------------|
*)--------------------------------------------------------------------------|
*)--------------------------------------------------------------------------|


*)------------------------------------------------------------------------|
*)------------------------------------------------------------------------|
*)------------------------------------------------------------------------|
*)-0-7-6-5--0-7-6-5--0-7-6-5--0-7-6-5--0-7-6-5--0-7-6-5--0-7-6-5--0-7-6-5-|x2
*)-0-7-6-5--0-7-6-5--0-7-6-5--0-7-6-5--0-7-6-5--0-7-6-5--0-7-6-5--0-7-6-5-|
*)-0-7-6-5--0-7-6-5--0-7-6-5--0-7-6-5--0-7-6-5--0-7-6-5--0-7-6-5--0-7-6-5-|


*)-----13-13-12---------10/1-10/1-----------------------------------------|
*)--10-----------13--10---------------------------------------------------|
*)------------------------------------------------------------------------|
*)------------------------------------------------------------------------|x2
*)------------------------------------------------------------------------|
*)------------------------------------------------------------------------|


*)-----13-13-13-13-13-13-13-12----------------10--10--10--10--10------------|
*)--10-------------------------13-13-13-10-10---10--10--10--10--------------|
*)--------------------------------------------------------------------------|
*)--------------------------------------------------------------------------|
*)--------------------------------------------------------------------------|
*)--------------------------------------------------------------------------|


*)------------------------------------------------------------------------|
*)------------------------------------------------------------------------|
*)------------------------------------------------------------------------|
*)-0-7-6-5--0-7-6-5--0-7-6-5--0-7-6-5--0-7-6-5--0-7-6-5--0-7-6-5--0-7-6-5-|x2
*)-0-7-6-5--0-7-6-5--0-7-6-5--0-7-6-5--0-7-6-5--0-7-6-5--0-7-6-5--0-7-6-5-|
*)-0-7-6-5--0-7-6-5--0-7-6-5--0-7-6-5--0-7-6-5--0-7-6-5--0-7-6-5--0-7-6-5-|


*)--------------------------------------------------------------------------|
*)--------------------------------------------------------------------------|
*)--------------------------------------------------------------------------|
*)-1--1-0---1--1-0---1--1-0---1--1-0----------------------------------------|
*)-1--1-0---1--1-0---1--1-0---1--1-0----------------------------------------|
*)-1--1-0---1--1-0---1--1-0---1--1-0----------------------------------------|


*)--------------------------------------------------------------------------|
*)--------------------------------------------------------------------------|
*)--------------------------------------------------------------------------|
*)-1-12/--1-0-1-0--12/-0----------------------------------------------------|
*)-1-12/--1-0-1-0--12/-0----------------------------------------------------|
*)-1-12/--1-0-1-0--12/-0----------------------------------------------------|


*)--------------------------------------------------------------------------|
*)--------------------------------------------------------------------------|
*)--------------------------------------------------------------------------|
*)-0-7-6-5--0-7-6-5--0-7-6-5--0-7-6-5--0-7-6-5--0-7-6-5--0-7-6-5--0-7-6-5---|
*)-0-7-6-5--0-7-6-5--0-7-6-5--0-7-6-5--0-7-6-5--0-7-6-5--0-7-6-5--0-7-6-5---|
*)-0-7-6-5--0-7-6-5--0-7-6-5--0-7-6-5--0-7-6-5--0-7-6-5--0-7-6-5--0-7-6-5---|
Tap to rate this tab
 
# A B C D E F G H I J K L M N O P Q R S T U V W X Y Z