Song name
# A B C D E F G H I J K L M N O P Q R S T U V W X Y Z

System Of A Down - *aerials* tab

tuning: C G C G B E

Intro(cello sounding part)
------------------------
------------------------
--7------------5--------
---------8----------7---
--5------------3--------
---------8----------7---

Guitar 1 Intro(In 8th notes clean)
----------------------------------------------------------------
----------------------------------------------------------------
----------------------------------------------------------------
----0-----0-----0-----0-----0-------0-----0----0-----0------0---
--0-----0-----0-----0-----0-------0-----0----0-----0-----0------  
3-----2-----0-----0-----0-----0-5-----3----2-----2-----2------2-


|--------------|-----------------|--------------------------------
|--------------|-----------------|--------------------------------
|--------------|-----------------|--------------------------------
|----0----0----|-0-----0----0----|-----0-----0-----0-----0-----0--
|--0----0-----0|-----0----------0|---0-----0-----0-----0-----0----
|3----5-----7--|---8-----7----5--|-3-----2-----0-----0-----0-----0
                                              /\
                                     Guitar 2 comes in here
Guitar 2(cello sound again)This riff is played while guitar 1 intro is 
played.
Vibrato w/whammy bar on all these notes.
|---------------|----------------|---------------|------------------|
|---------------|----------------|-----------8---|------------------|
|---------------|----------------|(Carry into next measure)---------|
|---------------|----------------|-----------5---|------------------|
|---------------|----------------|---------------|------------------|
|---------------|----------------|---------------|------------------|

Guitar1
|-----------------|-----------------|-----------------|---------
|-----------------|-----------------|-----------------|---------
|-----------------|-----------------|-----------------|---------
|-----0------0----|-0-----0-----0---|-----0------0----|-0-----0-
|---0------0-----0|-----0-----0-----|---0------0-----0|-----0---
|12-----10-----7--|---7-----7-----7/|14-----10-----7--|---7-----







Guitar 2
|--10------------|------------------|---8-------------|---------
|----(carry to)--|------------------|-------(carry)---|---------
|--7-(next again)|------------------|---5-------------|---------
|----------------|------------------|-----------------|---------
|----------------|------------------|-----------------|---------
|----------------|------------------|-----------------|---------

Guitar1
--------|------------------|-------------------|---------------
--------|------------------|-------------------|---------------
--------|------------------|-------------------|---------------
----0---|-----0------0-----|-0------0----0-----|---------------
--0-----|---0------0------0|------0-----------0|----------0----
7-----7/|12-----14-----15--|---17-----15---14--|-12-12/10------

Guitar 2
--------|----------------|---------------------|---8-----------|
--------|-6--(carry)-----|---------------------|-------(carry)-|
--------|----------------|---------------------|---5-----------|
--------|-3--------------|---------------------|---------------|
--------|----------------|---------------------|---------------|
--------|----------------|---------------------|---------------|

Guitar 1
----|--------------------|
----|--------------------|
----|--------------------|
----|-12--12--12--12--12-|
---0|--0---0---0---0---0-|
12--|-12--12--12--12---0-|

Verse(heavy distortion)
|---------------------------|--------|--------|-------|--------|
|-------(REPEAT)------------|--------|--------|-------|--------|
|---------------------------|------12|------10|------9|------7-|
|8---8--8-8---8-8---8-8-8-8-|-0000---|-0000---|-0000--|-0000---|
|8---8--8-8---8-8---8-8-8-8-|-0000-10|-0000-8-|-0000-7|-0000-5-|
|8---8--8-8---8-8---8-8-8-8-|-0000---|-0000---|-0000--|-0000---|
                              (pm)     (pm)     (pm)    (pm)

Chorus (clean)

|---------------|----------------|---------------|------------------|
|---------------|----------------|---------------|------------------|
|---------------|----------------|---------------|------------------|
|----0-----0----|-0-----0-----0--|-----0-----0---|-0-----0------0---|
|--0-----0-----0|-----0-----0----|---0-----0----0|-----0-----0------|
|3-----2-----0--|---0-----0-----0|-5-----3----2--|---2-----2------2-|


|--------------|-----------------|----------------|----------------|
|--------------|-----------------|----------------|----------------|
|--------------|-----------------|----------------|----------------|
|----0----0----|-0-----0----0----|-----0-----0----|-0-----0-----0--|
|--0----0-----0|-----0----------0|---0-----0-----0|-----0-----0----|
|3----5-----7--|---8-----7----5--|-3-----2-----0--|---0-----0-----0|






Outro/bridge w/dist

|--------|---------|---------|---------|
|--------|---------|---------|---------|
|--------|---------|---------|---------|
|7-7-7-7-|-7-7-7-7-|-7-7-7-7-|-7-7-7-7-|
|7-7-7-7-|-7-7-7-7-|-7-7-7-7-|-7-7-7-7-|
|7-7-7-7-|-7-7-7-7-|-7-7-7-7-|-7-7-7-7-|
                      (pm)      (pm)


|-----------|---------|------------|-----------|----------|
|-----------|---------|------------|-----------|----------|
|-----------|---------|------------|-----------|----------|
|-3--2--0---|---------|-5--3---2---|--2--2-2---|-3--5--7--|
|-3--2--0---|---------|-5--3---2---|--2--2-2---|-3--5--7--|
|-3--2--0---|-0-0-0-0-|-5--3---2---|--2--2-2---|-3--5--7--|

|--------------|------------|------------|
|--------------|------------|------------|
|--------------|------------|------------|(3x)
|--8--7--5-----|--3--2--0---|------------|
|--8--7--5-----|--3--2--0---|------------|
|--8--7--5-----|--3--2--0---|---12\------|
(clean)
|---------------|----------------|---------------|------------------|
|---------------|----------------|---------------|------------------|
|---------------|----------------|---------------|------------------|
|----0-----0----|-0-----0-----0--|-----0-----0---|-0-----0------0---|
|--0-----0-----0|-----0-----0----|---0-----0----0|-----0-----0------|
|3-----2-----0--|---0-----0-----0|-5-----3----2--|---2-----2------2-|


|--------------|-----------------|----------------|----------------|
|--------------|-----------------|----------------|----------------|
|--------------|-----------------|----------------|----------------|
|----0----0----|-0-----0----0----|-----0-----0----|-0-----0-----0--|
|--0----0-----0|-----0----------0|---0-----0-----0|-----0-----0----|
|3----5-----7--|---8-----7----5--|-3-----2-----0--|---0-----0-----0|

|---------------|----------------|---------------|------------------|
|---------------|----------------|---------------|------------------|
|---------------|----------------|---------------|------------------|
|----0-----0----|-0-----0-----0--|-----0-----0---|-0-----0------0---|
|--0-----0-----0|-----0-----0----|---0-----0----0|-----0-----0------|
|3-----2-----0--|---0-----0-----0|-5-----3----2--|---2-----2------2-|


|--------------|-----------------|----------------|
|--------------|-----------------|----------------|
|--------------|-----------------|----------------|
|----0----0----|-0-----0----0----|-----0-----0----|
|--0----0-----0|-----0----------0|---0-----0------|
|3----5-----7--|---8-----7----5--|-3-----2-----0--|


Key:
(pm)- palm mute
/ or \- slide
^- bend

There are two guitar parts in this...the second one has a cello/violin sound to it...w/e

Tap to rate this tab
# A B C D E F G H I J K L M N O P Q R S T U V W X Y Z