Song name
# A B C D E F G H I J K L M N O P Q R S T U V W X Y Z

System Of A Down - When The Smoke Is Going Down Live tab

Alternative way to play it that I greatly prefer. (Despite it not being the way he 
actually played it.)

Drop C tuning [C G C F A D]

Order to play:
1,1,2,1,2,1,3

PART I
------3-0---5-3-2-0---3-0-----2-0------|
--------------------------0-------0----|
---------------------------------------|
----2-----2-----------------0----------|
---------------------3-----------------|
---------------------------------------|

PART II
------3-0---3-0---2---2-----2-----2----|
------------------------3-----3--------|
---------------------------------------|
----2-----2-----2---0-----0-----4------|
---------------------------------------|
---------------------------------------|

PART III
------3-0---3-0---2---3-0-----2-0------|
--------------------------0-------0----|
---------------------------------------|
----2-----2-----2-----------0----------|
--------------------3------------------|
---------------------------------------|
Tap to rate this tab
 
# A B C D E F G H I J K L M N O P Q R S T U V W X Y Z